  0
SECTION
  2
HEADER
  9
$ACADVER
  1
AC1018
  9
$ACADMAINTVER
 70
     0
  9
$DWGCODEPAGE
  3
ANSI_1252
  9
$COMMENTS
  1
File was created by Mastercam 2018
  9
$INSBASE
 10
0.0
 20
0.0
 30
0.0
  9
$EXTMIN
 10
0.0
 20
-13.582174410593
 30
0.0
  9
$EXTMAX
 10
80.00000000000001
 20
4.000000000000001
 30
0.0
  9
$LIMMIN
 10
0.0
 20
0.0
  9
$LIMMAX
 10
420.0
 20
297.0
  9
$ORTHOMODE
 70
     0
  9
$REGENMODE
 70
     1
  9
$FILLMODE
 70
     1
  9
$QTEXTMODE
 70
     0
  9
$MIRRTEXT
 70
     1
  9
$LTSCALE
 40
1.0
  9
$ATTMODE
 70
     1
  9
$TEXTSIZE
 40
2.5
  9
$TRACEWID
 40
1.0
  9
$TEXTSTYLE
  7
Standard
  9
$CLAYER
  8
0
  9
$CELTYPE
  6
ByLayer
  9
$CECOLOR
 62
   256
  9
$CELTSCALE
 40
1.0
  9
$DISPSILH
 70
     0
  9
$DIMSCALE
 40
1.0
  9
$DIMASZ
 40
2.5
  9
$DIMEXO
 40
0.625
  9
$DIMDLI
 40
3.75
  9
$DIMRND
 40
0.0
  9
$DIMDLE
 40
0.0
  9
$DIMEXE
 40
1.25
  9
$DIMTP
 40
0.0
  9
$DIMTM
 40
0.0
  9
$DIMTXT
 40
2.5
  9
$DIMCEN
 40
2.5
  9
$DIMTSZ
 40
0.0
  9
$DIMTOL
 70
     0
  9
$DIMLIM
 70
     0
  9
$DIMTIH
 70
     0
  9
$DIMTOH
 70
     0
  9
$DIMSE1
 70
     0
  9
$DIMSE2
 70
     0
  9
$DIMTAD
 70
     1
  9
$DIMZIN
 70
     8
  9
$DIMBLK
  1

  9
$DIMASO
 70
     1
  9
$DIMSHO
 70
     1
  9
$DIMPOST
  1

  9
$DIMAPOST
  1

  9
$DIMALT
 70
     0
  9
$DIMALTD
 70
     3
  9
$DIMALTF
 40
0.03937007874016
  9
$DIMLFAC
 40
1.0
  9
$DIMTOFL
 70
     1
  9
$DIMTVP
 40
0.0
  9
$DIMTIX
 70
     0
  9
$DIMSOXD
 70
     0
  9
$DIMSAH
 70
     0
  9
$DIMBLK1
  1

  9
$DIMBLK2
  1

  9
$DIMSTYLE
  2
ISO-25
  9
$DIMCLRD
 70
     0
  9
$DIMCLRE
 70
     0
  9
$DIMCLRT
 70
     0
  9
$DIMTFAC
 40
1.0
  9
$DIMGAP
 40
0.625
  9
$DIMJUST
 70
     0
  9
$DIMSD1
 70
     0
  9
$DIMSD2
 70
     0
  9
$DIMTOLJ
 70
     0
  9
$DIMTZIN
 70
     8
  9
$DIMALTZ
 70
     0
  9
$DIMALTTZ
 70
     0
  9
$DIMUPT
 70
     0
  9
$DIMDEC
 70
     2
  9
$DIMTDEC
 70
     2
  9
$DIMALTU
 70
     2
  9
$DIMALTTD
 70
     3
  9
$DIMTXSTY
  7
Standard
  9
$DIMAUNIT
 70
     0
  9
$DIMADEC
 70
     0
  9
$DIMALTRND
 40
0.0
  9
$DIMAZIN
 70
     0
  9
$DIMDSEP
 70
    44
  9
$DIMATFIT
 70
     3
  9
$DIMFRAC
 70
     0
  9
$DIMLDRBLK
  1

  9
$DIMLUNIT
 70
     2
  9
$DIMLWD
 70
    -2
  9
$DIMLWE
 70
    -2
  9
$DIMTMOVE
 70
     0
  9
$LUNITS
 70
     2
  9
$LUPREC
 70
     4
  9
$SKETCHINC
 40
1.0
  9
$FILLETRAD
 40
10.0
  9
$AUNITS
 70
     0
  9
$AUPREC
 70
     0
  9
$MENU
  1
.
  9
$ELEVATION
 40
0.0
  9
$PELEVATION
 40
0.0
  9
$THICKNESS
 40
0.0
  9
$LIMCHECK
 70
     0
  9
$CHAMFERA
 40
0.0
  9
$CHAMFERB
 40
0.0
  9
$CHAMFERC
 40
0.0
  9
$CHAMFERD
 40
0.0
  9
$SKPOLY
 70
     0
  9
$TDCREATE
 40
2453737.5
  9
$TDUCREATE
 40
2453737.458333333
  9
$TDUPDATE
 40
2458436.503116678
  9
$TDUUPDATE
 40
2458436.461450011
  9
$TDINDWG
 40
0.0000000116
  9
$TDUSRTIMER
 40
0.0000000116
  9
$USRTIMER
 70
     1
  9
$ANGBASE
 50
0.0
  9
$ANGDIR
 70
     0
  9
$PDMODE
 70
     2
  9
$PDSIZE
 40
0.1
  9
$PLINEWID
 40
0.0
  9
$SPLFRAME
 70
     0
  9
$SPLINETYPE
 70
     6
  9
$SPLINESEGS
 70
     8
  9
$HANDSEED
  5
2D0
  9
$SURFTAB1
 70
     6
  9
$SURFTAB2
 70
     6
  9
$SURFTYPE
 70
     6
  9
$SURFU
 70
     6
  9
$SURFV
 70
     6
  9
$UCSBASE
  2

  9
$UCSNAME
  2

  9
$UCSORG
 10
0.0
 20
0.0
 30
0.0
  9
$UCSXDIR
 10
1.0
 20
0.0
 30
0.0
  9
$UCSYDIR
 10
0.0
 20
1.0
 30
0.0
  9
$UCSORTHOREF
  2

  9
$UCSORTHOVIEW
 70
     0
  9
$UCSORGTOP
 10
0.0
 20
0.0
 30
0.0
  9
$UCSORGBOTTOM
 10
0.0
 20
0.0
 30
0.0
  9
$UCSORGLEFT
 10
0.0
 20
0.0
 30
0.0
  9
$UCSORGRIGHT
 10
0.0
 20
0.0
 30
0.0
  9
$UCSORGFRONT
 10
0.0
 20
0.0
 30
0.0
  9
$UCSORGBACK
 10
0.0
 20
0.0
 30
0.0
  9
$PUCSBASE
  2

  9
$PUCSNAME
  2

  9
$PUCSORG
 10
0.0
 20
0.0
 30
0.0
  9
$PUCSXDIR
 10
1.0
 20
0.0
 30
0.0
  9
$PUCSYDIR
 10
0.0
 20
1.0
 30
0.0
  9
$PUCSORTHOREF
  2

  9
$PUCSORTHOVIEW
 70
     0
  9
$PUCSORGTOP
 10
0.0
 20
0.0
 30
0.0
  9
$PUCSORGBOTTOM
 10
0.0
 20
0.0
 30
0.0
  9
$PUCSORGLEFT
 10
0.0
 20
0.0
 30
0.0
  9
$PUCSORGRIGHT
 10
0.0
 20
0.0
 30
0.0
  9
$PUCSORGFRONT
 10
0.0
 20
0.0
 30
0.0
  9
$PUCSORGBACK
 10
0.0
 20
0.0
 30
0.0
  9
$USERI1
 70
     0
  9
$USERI2
 70
     0
  9
$USERI3
 70
     0
  9
$USERI4
 70
     0
  9
$USERI5
 70
     0
  9
$USERR1
 40
0.0
  9
$USERR2
 40
0.0
  9
$USERR3
 40
0.0
  9
$USERR4
 40
0.0
  9
$USERR5
 40
0.0
  9
$WORLDVIEW
 70
     1
  9
$SHADEDGE
 70
     3
  9
$SHADEDIF
 70
    70
  9
$TILEMODE
 70
     1
  9
$MAXACTVP
 70
    64
  9
$PINSBASE
 10
0.0
 20
0.0
 30
0.0
  9
$PLIMCHECK
 70
     0
  9
$PEXTMIN
 10
0.0
 20
0.0
 30
0.0
  9
$PEXTMAX
 10
0.0
 20
0.0
 30
0.0
  9
$PLIMMIN
 10
-20.0
 20
-7.5
  9
$PLIMMAX
 10
277.0
 20
202.5
  9
$UNITMODE
 70
     0
  9
$VISRETAIN
 70
     1
  9
$PLINEGEN
 70
     0
  9
$PSLTSCALE
 70
     1
  9
$TREEDEPTH
 70
  3020
  9
$CMLSTYLE
  2
Standard
  9
$CMLJUST
 70
     0
  9
$CMLSCALE
 40
20.0
  9
$PROXYGRAPHICS
 70
     1
  9
$MEASUREMENT
 70
     1
  9
$CELWEIGHT
370
    -1
  9
$ENDCAPS
280
     0
  9
$JOINSTYLE
280
     0
  9
$LWDISPLAY
290
     0
  9
$INSUNITS
 70
     4
  9
$HYPERLINKBASE
  1

  9
$STYLESHEET
  1

  9
$XEDIT
290
     1
  9
$CEPSNTYPE
380
     0
  9
$PSTYLEMODE
290
     1
  9
$FINGERPRINTGUID
  2
{7b787338-e22c-4fc5-8dd5-99581d865900}
  9
$VERSIONGUID
  2
{FAEB1C32-E019-11D5-929B-00C0DF256EC4}
  9
$EXTNAMES
290
     1
  9
$PSVPSCALE
 40
0.0
  9
$OLESTARTUP
290
     0
  9
$SORTENTS
280
   127
  9
$INDEXCTL
280
     0
  9
$HIDETEXT
280
     1
  9
$XCLIPFRAME
290
     0
  9
$HALOGAP
280
     0
  9
$OBSCOLOR
 70
   257
  9
$OBSLTYPE
280
     0
  9
$INTERSECTIONDISPLAY
280
     0
  9
$INTERSECTIONCOLOR
 70
   257
  9
$DIMASSOC
280
     2
  9
$PROJECTNAME
  1

  0
ENDSEC
  0
SECTION
  2
CLASSES
  0
CLASS
  1
ACDBDICTIONARYWDFLT
  2
AcDbDictionaryWithDefault
  3
ObjectDBX Classes
 90
        0
 91
        3
280
     0
281
     0
  0
CLASS
  1
VISUALSTYLE
  2
AcDbVisualStyle
  3
ObjectDBX Classes
 90
     4095
 91
        3
280
     0
281
     0
  0
CLASS
  1
MATERIAL
  2
AcDbMaterial
  3
ObjectDBX Classes
 90
     1153
 91
        3
280
     0
281
     0
  0
CLASS
  1
SCALE
  2
AcDbScale
  3
ObjectDBX Classes
 90
     1153
 91
        3
280
     0
281
     0
  0
CLASS
  1
TABLESTYLE
  2
AcDbTableStyle
  3
ObjectDBX Classes
 90
     4095
 91
        3
280
     0
281
     0
  0
CLASS
  1
MLEADERSTYLE
  2
AcDbMLeaderStyle
  3
ACDB_MLEADERSTYLE_CLASS
 90
     4095
 91
        3
280
     0
281
     0
  0
CLASS
  1
SUN
  2
AcDbSun
  3
SCENEOE
 90
     1153
 91
        3
280
     0
281
     0
  0
CLASS
  1
DICTIONARYVAR
  2
AcDbDictionaryVar
  3
ObjectDBX Classes
 90
        0
 91
        3
280
     0
281
     0
  0
CLASS
  1
CELLSTYLEMAP
  2
AcDbCellStyleMap
  3
ObjectDBX Classes
 90
     1152
 91
        3
280
     0
281
     0
  0
ENDSEC
  0
SECTION
  2
TABLES
  0
TABLE
  2
VPORT
  5
8
102
{ACAD_XDICTIONARY
360
287
102
}
330
0
100
AcDbSymbolTable
 70
     1
  0
VPORT
  5
29
330
8
100
AcDbSymbolTableRecord
100
AcDbViewportTableRecord
  2
*Active
 70
     0
 10
0.0
 20
0.0
 11
1.0
 21
1.0
 12
344.1869158878504
 22
148.5
 13
0.0
 23
0.0
 14
10.0
 24
10.0
 15
10.0
 25
10.0
 16
0.0
 26
0.0
 36
1.0
 17
0.0
 27
0.0
 37
0.0
 40
297.0
 41
1.972972972850329
 42
50.0
 43
0.0
 44
0.0
 50
0.0
 51
0.0
 71
     0
 72
   100
 73
     1
 74
     3
 75
     0
 76
     0
 77
     0
 78
     0
281
     0
 65
     1
110
0.0
120
0.0
130
0.0
111
1.0
121
0.0
131
0.0
112
0.0
122
1.0
132
0.0
 79
     0
146
0.0
  0
ENDTAB
  0
TABLE
  2
LTYPE
  5
5
330
0
100
AcDbSymbolTable
 70
     5
  0
LTYPE
  5
14
330
5
100
AcDbSymbolTableRecord
100
AcDbLinetypeTableRecord
  2
ByBlock
 70
     0
  3

 72
    65
 73
     0
 40
0.0
  0
LTYPE
  5
15
330
5
100
AcDbSymbolTableRecord
100
AcDbLinetypeTableRecord
  2
ByLayer
 70
     0
  3

 72
    65
 73
     0
 40
0.0
  0
LTYPE
  5
16
330
5
100
AcDbSymbolTableRecord
100
AcDbLinetypeTableRecord
  2
Continuous
 70
     0
  3
Solid line
 72
    65
 73
     0
 40
0.0
  0
LTYPE
  5
6F
330
5
100
AcDbSymbolTableRecord
100
AcDbLinetypeTableRecord
  2
Continuous2
 70
     0
  3
Solid Line
 72
    65
 73
     0
 40
0.0
  0
LTYPE
  5
70
330
5
100
AcDbSymbolTableRecord
100
AcDbLinetypeTableRecord
  2
DASHED
 70
     0
  3
__ __ __ __ __ __ __ __ __ __ __ __ __ __ __ __
 72
    83
 73
     2
 40
0.5
 49
0.375
 74
     0
 49
-0.125
 74
     0
  0
LTYPE
  5
71
330
5
100
AcDbSymbolTableRecord
100
AcDbLinetypeTableRecord
  2
CENTER
 70
     0
  3
____ _ ____ _ ____ _ ____ _ ____ _ ____ _ ____ _
 72
    83
 73
     4
 40
1.0
 49
0.625
 74
     0
 49
-0.125
 74
     0
 49
0.125
 74
     0
 49
-0.125
 74
     0
  0
LTYPE
  5
72
330
5
100
AcDbSymbolTableRecord
100
AcDbLinetypeTableRecord
  2
PHANTOM
 70
     0
  3
___ _ _ ___ _ _ ___ _ _ ___ _ _ ___ _ _ ___ _ _ 
 72
    83
 73
     6
 40
1.0
 49
0.5
 74
     0
 49
-0.1
 74
     0
 49
0.1
 74
     0
 49
-0.1
 74
     0
 49
0.1
 74
     0
 49
-0.1
 74
     0
  0
ENDTAB
  0
TABLE
  2
LAYER
  5
2
330
0
100
AcDbSymbolTable
 70
     4
  0
LAYER
  5
10
330
2
100
AcDbSymbolTableRecord
100
AcDbLayerTableRecord
  2
0
 70
     0
 62
     7
  6
Continuous
370
    -3
390
F
  0
LAYER
  5
73
330
2
100
AcDbSymbolTableRecord
100
AcDbLayerTableRecord
  2
Nocut
 70
     0
 62
     1
  6
Continuous
370
    -3
390
F
  0
LAYER
  5
74
330
2
100
AcDbSymbolTableRecord
100
AcDbLayerTableRecord
  2
Cut
 70
     0
 62
     1
  6
Continuous
370
    -3
390
F
  0
LAYER
  5
75
330
2
100
AcDbSymbolTableRecord
100
AcDbLayerTableRecord
  2
Benennung
 70
     0
 62
     1
  6
Continuous
370
    -3
390
F
  0
ENDTAB
  0
TABLE
  2
STYLE
  5
3
330
0
100
AcDbSymbolTable
 70
     1
  0
STYLE
  5
11
330
3
100
AcDbSymbolTableRecord
100
AcDbTextStyleTableRecord
  2
Standard
 70
     0
 40
0.0
 41
1.0
 50
0.0
 71
     0
 42
2.5
  3
txt
  4

  0
ENDTAB
  0
TABLE
  2
VIEW
  5
6
330
0
100
AcDbSymbolTable
 70
     0
  0
ENDTAB
  0
TABLE
  2
UCS
  5
7
330
0
100
AcDbSymbolTable
 70
     0
  0
ENDTAB
  0
TABLE
  2
APPID
  5
9
330
0
100
AcDbSymbolTable
 70
     3
  0
APPID
  5
12
330
9
100
AcDbSymbolTableRecord
100
AcDbRegAppTableRecord
  2
ACAD
 70
     0
  0
APPID
  5
6E
330
9
100
AcDbSymbolTableRecord
100
AcDbRegAppTableRecord
  2
Mastercam 2018
 70
     0
  0
APPID
  5
2C6
330
9
100
AcDbSymbolTableRecord
100
AcDbRegAppTableRecord
  2
ACAD_MLEADERVER
 70
     0
  0
ENDTAB
  0
TABLE
  2
DIMSTYLE
  5
A
330
0
100
AcDbSymbolTable
 70
     1
100
AcDbDimStyleTable
  0
DIMSTYLE
105
27
330
A
100
AcDbSymbolTableRecord
100
AcDbDimStyleTableRecord
  2
ISO-25
 70
     0
 41
2.5
 42
0.625
 43
3.75
 44
1.25
 73
     0
 74
     0
 77
     1
 78
     8
140
2.5
141
2.5
143
0.03937007874016
147
0.625
171
     3
172
     1
178
     0
271
     2
272
     2
274
     3
278
    44
283
     0
284
     8
340
11
  0
ENDTAB
  0
TABLE
  2
BLOCK_RECORD
  5
1
330
0
100
AcDbSymbolTable
 70
     0
  0
BLOCK_RECORD
  5
1F
330
1
100
AcDbSymbolTableRecord
100
AcDbBlockTableRecord
  2
*Model_Space
340
22
  0
BLOCK_RECORD
  5
23
330
1
100
AcDbSymbolTableRecord
100
AcDbBlockTableRecord
  2
*Paper_Space
340
26
  0
ENDTAB
  0
ENDSEC
  0
SECTION
  2
BLOCKS
  0
BLOCK
  5
20
330
1F
100
AcDbEntity
  8
0
100
AcDbBlockBegin
  2
*Model_Space
 70
     0
 10
0.0
 20
0.0
 30
0.0
  3
*Model_Space
  1

  0
ENDBLK
  5
21
330
1F
100
AcDbEntity
  8
0
100
AcDbBlockEnd
  0
BLOCK
  5
24
330
23
100
AcDbEntity
 67
     1
  8
0
100
AcDbBlockBegin
  2
*Paper_Space
 70
     0
 10
0.0
 20
0.0
 30
0.0
  3
*Paper_Space
  1

  0
ENDBLK
  5
25
330
23
100
AcDbEntity
 67
     1
  8
0
100
AcDbBlockEnd
  0
ENDSEC
  0
SECTION
  2
ENTITIES
  0
LINE
  5
76
330
1F
100
AcDbEntity
  8
Nocut
  6
Continuous2
 62
     7
420
 16777215
370
    -3
100
AcDbLine
 10
0.0
 20
3.8
 30
0.0
 11
0.0
 21
0.0000000000000004
 31
0.0
  0
ARC
  5
77
330
1F
100
AcDbEntity
  8
Cut
  6
Continuous2
 62
     1
420
 16711680
370
    -3
100
AcDbCircle
 10
78.50000000000001
 20
0.0
 30
0.0
 40
1.5
100
AcDbArc
 50
0.0
 51
69.63586519368202
  0
LINE
  5
78
330
1F
100
AcDbEntity
  8
Cut
  6
Continuous2
 62
     1
420
 16711680
370
    -3
100
AcDbLine
 10
65.97
 20
3.749999914642274
 30
0.0
 11
65.97
 21
-0.0000000000000004
 31
0.0
  0
ARC
  5
79
330
1F
100
AcDbEntity
  8
Cut
  6
Continuous2
 62
     1
420
 16711680
370
    -3
100
AcDbCircle
 10
65.97253018363247
 20
-33.75
 30
0.0
 40
37.5
100
AcDbArc
 50
69.63586519368219
 51
90.0033231654416
  0
LINE
  5
7A
330
1F
100
AcDbEntity
  8
Nocut
  6
Continuous2
 62
     7
420
 16777215
370
    -3
100
AcDbLine
 10
49.99999999999999
 20
3.65
 30
0.0
 11
65.40287303874135
 21
3.65
 31
0.0
  0
LINE
  5
7B
330
1F
100
AcDbEntity
  8
Nocut
  6
Continuous2
 62
     7
420
 16777215
370
    -3
100
AcDbLine
 10
0.1999999999999995
 20
4.0
 30
0.0
 11
48.16717222700122
 21
4.0
 31
0.0
  0
ARC
  5
7C
330
1F
100
AcDbEntity
  8
Nocut
  6
Continuous2
 62
     7
420
 16777215
370
    -3
100
AcDbCircle
 10
49.99999999999999
 20
7.649999999999999
 30
0.0
 40
4.0
100
AcDbArc
 50
255.0000000000013
 51
270.0000008537737
  0
LINE
  5
7D
330
1F
100
AcDbEntity
  8
Nocut
  6
Continuous2
 62
     7
420
 16777215
370
    -3
100
AcDbLine
 10
48.96472381959001
 20
3.786296694843701
 30
0.0
 11
48.16717222700122
 21
4.000000000000001
 31
0.0
  0
LINE
  5
7E
330
1F
100
AcDbEntity
  8
Nocut
  6
Continuous2
 62
     7
420
 16777215
370
    -3
100
AcDbLine
 10
0.1999999999999995
 20
4.0
 30
0.0
 11
0.0
 21
3.8
 31
0.0
  0
LINE
  5
7F
330
1F
100
AcDbEntity
  8
Nocut
  6
Continuous2
 62
     7
420
 16777215
370
    -3
100
AcDbLine
 10
0.0
 20
-3.8
 30
0.0
 11
0.0
 21
-0.0000000000000004
 31
0.0
  0
ARC
  5
80
330
1F
100
AcDbEntity
  8
Cut
  6
Continuous2
 62
     1
420
 16711680
370
    -3
100
AcDbCircle
 10
78.49999999999997
 20
0.0000000000000155
 30
0.0
 40
1.500000000000028
100
AcDbArc
 50
290.3641348063188
 51
359.9999999999993
  0
LINE
  5
81
330
1F
100
AcDbEntity
  8
Cut
  6
Continuous2
 62
     1
420
 16711680
370
    -3
100
AcDbLine
 10
65.96999999999998
 20
-3.749999914642274
 30
0.0
 11
65.96999999999998
 21
0.0000000000000004
 31
0.0
  0
ARC
  5
82
330
1F
100
AcDbEntity
  8
Cut
  6
Continuous2
 62
     1
420
 16711680
370
    -3
100
AcDbCircle
 10
65.97253018363234
 20
33.75000000000042
 30
0.0
 40
37.50000000000043
100
AcDbArc
 50
269.9966768345586
 51
290.3641348063177
  0
LINE
  5
83
330
1F
100
AcDbEntity
  8
Nocut
  6
Continuous2
 62
     7
420
 16777215
370
    -3
100
AcDbLine
 10
49.99999999999998
 20
-3.65
 30
0.0
 11
65.40287303874136
 21
-3.65
 31
0.0
  0
LINE
  5
84
330
1F
100
AcDbEntity
  8
Nocut
  6
Continuous2
 62
     7
420
 16777215
370
    -3
100
AcDbLine
 10
0.1999999999999995
 20
-4.0
 30
0.0
 11
48.16717222700121
 21
-4.0
 31
0.0
  0
ARC
  5
85
330
1F
100
AcDbEntity
  8
Nocut
  6
Continuous2
 62
     7
420
 16777215
370
    -3
100
AcDbCircle
 10
49.99999999999999
 20
-7.650000000000184
 30
0.0
 40
4.000000000000182
100
AcDbArc
 50
89.99999914622656
 51
104.9999999999982
  0
LINE
  5
86
330
1F
100
AcDbEntity
  8
Nocut
  6
Continuous2
 62
     7
420
 16777215
370
    -3
100
AcDbLine
 10
48.96472381958999
 20
-3.786296694843701
 30
0.0
 11
48.16717222700121
 21
-4.000000000000001
 31
0.0
  0
LINE
  5
87
330
1F
100
AcDbEntity
  8
Nocut
  6
Continuous2
 62
     7
420
 16777215
370
    -3
100
AcDbLine
 10
0.1999999999999995
 20
-4.0
 30
0.0
 11
0.0
 21
-3.8
 31
0.0
  0
LINE
  5
88
330
1F
100
AcDbEntity
  8
Nocut
  6
Continuous2
 62
     7
420
 16777215
370
    -3
100
AcDbLine
 10
65.97
 20
3.75
 30
0.0
 11
65.97
 21
-3.75
 31
0.0
  0
LINE
  5
89
330
1F
100
AcDbEntity
  8
Nocut
  6
Continuous2
 62
     7
420
 16777215
370
    -3
100
AcDbLine
 10
65.97000122070312
 20
3.75
 30
0.0
 11
65.40287303874135
 21
3.65
 31
0.0
  0
LINE
  5
8A
330
1F
100
AcDbEntity
  8
Nocut
  6
Continuous2
 62
     7
420
 16777215
370
    -3
100
AcDbLine
 10
65.97000122070312
 20
-3.75
 30
0.0
 11
65.40287303874136
 21
-3.650000000000001
 31
0.0
  0
LINE
  5
8B
330
1F
100
AcDbEntity
  8
Benennung
  6
Continuous2
 62
     4
420
    65535
370
    -3
100
AcDbLine
 10
19.04375000000001
 20
-12.50525133366992
 30
0.0
 11
19.05747549019608
 21
-12.707174410593
 31
0.0
  0
LINE
  5
8C
330
1F
100
AcDbEntity
  8
Benennung
  6
Continuous2
 62
     4
420
    65535
370
    -3
100
AcDbLine
 10
19.05747549019608
 20
-12.707174410593
 30
0.0
 11
19.09865196078432
 21
-12.87544364136223
 31
0.0
  0
LINE
  5
8D
330
1F
100
AcDbEntity
  8
Benennung
  6
Continuous2
 62
     4
420
    65535
370
    -3
100
AcDbLine
 10
19.09865196078432
 20
-12.87544364136223
 30
0.0
 11
19.16041666666667
 21
-13.04371287213146
 31
0.0
  0
LINE
  5
8E
330
1F
100
AcDbEntity
  8
Benennung
  6
Continuous2
 62
     4
420
    65535
370
    -3
100
AcDbLine
 10
19.16041666666667
 20
-13.04371287213146
 30
0.0
 11
19.24963235294118
 21
-13.19515517982377
 31
0.0
  0
LINE
  5
8F
330
1F
100
AcDbEntity
  8
Benennung
  6
Continuous2
 62
     4
420
    65535
370
    -3
100
AcDbLine
 10
19.24963235294118
 20
-13.19515517982377
 30
0.0
 11
19.35943627450981
 21
-13.32977056443916
 31
0.0
  0
LINE
  5
90
330
1F
100
AcDbEntity
  8
Benennung
  6
Continuous2
 62
     4
420
    65535
370
    -3
100
AcDbLine
 10
19.35943627450981
 20
-13.32977056443916
 30
0.0
 11
19.48296568627452
 21
-13.43073210290069
 31
0.0
  0
LINE
  5
91
330
1F
100
AcDbEntity
  8
Benennung
  6
Continuous2
 62
     4
420
    65535
370
    -3
100
AcDbLine
 10
19.48296568627452
 20
-13.43073210290069
 30
0.0
 11
19.6202205882353
 21
-13.51486671828531
 31
0.0
  0
LINE
  5
92
330
1F
100
AcDbEntity
  8
Benennung
  6
Continuous2
 62
     4
420
    65535
370
    -3
100
AcDbLine
 10
19.6202205882353
 20
-13.51486671828531
 30
0.0
 11
19.76433823529413
 21
-13.56534748751608
 31
0.0
  0
LINE
  5
93
330
1F
100
AcDbEntity
  8
Benennung
  6
Continuous2
 62
     4
420
    65535
370
    -3
100
AcDbLine
 10
19.76433823529413
 20
-13.56534748751608
 30
0.0
 11
19.92218137254903
 21
-13.582174410593
 31
0.0
  0
LINE
  5
94
330
1F
100
AcDbEntity
  8
Benennung
  6
Continuous2
 62
     4
420
    65535
370
    -3
100
AcDbLine
 10
19.92218137254903
 20
-13.582174410593
 30
0.0
 11
20.07316176470589
 21
-13.56534748751608
 31
0.0
  0
LINE
  5
95
330
1F
100
AcDbEntity
  8
Benennung
  6
Continuous2
 62
     4
420
    65535
370
    -3
100
AcDbLine
 10
20.07316176470589
 20
-13.56534748751608
 30
0.0
 11
20.21727941176471
 21
-13.51486671828531
 31
0.0
  0
LINE
  5
96
330
1F
100
AcDbEntity
  8
Benennung
  6
Continuous2
 62
     4
420
    65535
370
    -3
100
AcDbLine
 10
20.21727941176471
 20
-13.51486671828531
 30
0.0
 11
20.35453431372549
 21
-13.43073210290069
 31
0.0
  0
LINE
  5
97
330
1F
100
AcDbEntity
  8
Benennung
  6
Continuous2
 62
     4
420
    65535
370
    -3
100
AcDbLine
 10
20.35453431372549
 20
-13.43073210290069
 30
0.0
 11
20.4780637254902
 21
-13.32977056443916
 31
0.0
  0
LINE
  5
98
330
1F
100
AcDbEntity
  8
Benennung
  6
Continuous2
 62
     4
420
    65535
370
    -3
100
AcDbLine
 10
20.4780637254902
 20
-13.32977056443916
 30
0.0
 11
20.58786764705883
 21
-13.19515517982377
 31
0.0
  0
LINE
  5
99
330
1F
100
AcDbEntity
  8
Benennung
  6
Continuous2
 62
     4
420
    65535
370
    -3
100
AcDbLine
 10
20.58786764705883
 20
-13.19515517982377
 30
0.0
 11
20.67708333333334
 21
-13.04371287213146
 31
0.0
  0
LINE
  5
9A
330
1F
100
AcDbEntity
  8
Benennung
  6
Continuous2
 62
     4
420
    65535
370
    -3
100
AcDbLine
 10
20.67708333333334
 20
-13.04371287213146
 30
0.0
 11
20.73884803921569
 21
-12.87544364136223
 31
0.0
  0
LINE
  5
9B
330
1F
100
AcDbEntity
  8
Benennung
  6
Continuous2
 62
     4
420
    65535
370
    -3
100
AcDbLine
 10
20.73884803921569
 20
-12.87544364136223
 30
0.0
 11
20.78002450980393
 21
-12.707174410593
 31
0.0
  0
LINE
  5
9C
330
1F
100
AcDbEntity
  8
Benennung
  6
Continuous2
 62
     4
420
    65535
370
    -3
100
AcDbLine
 10
20.78002450980393
 20
-12.707174410593
 30
0.0
 11
20.79375000000001
 21
-12.50525133366992
 31
0.0
  0
LINE
  5
9D
330
1F
100
AcDbEntity
  8
Benennung
  6
Continuous2
 62
     4
420
    65535
370
    -3
100
AcDbLine
 10
20.79375000000001
 20
-12.50525133366992
 30
0.0
 11
20.78002450980393
 21
-12.32015517982377
 31
0.0
  0
LINE
  5
9E
330
1F
100
AcDbEntity
  8
Benennung
  6
Continuous2
 62
     4
420
    65535
370
    -3
100
AcDbLine
 10
20.78002450980393
 20
-12.32015517982377
 30
0.0
 11
20.73884803921569
 21
-12.15188594905454
 31
0.0
  0
LINE
  5
9F
330
1F
100
AcDbEntity
  8
Benennung
  6
Continuous2
 62
     4
420
    65535
370
    -3
100
AcDbLine
 10
20.73884803921569
 20
-12.15188594905454
 30
0.0
 11
20.67708333333334
 21
-11.98361671828531
 31
0.0
  0
LINE
  5
A0
330
1F
100
AcDbEntity
  8
Benennung
  6
Continuous2
 62
     4
420
    65535
370
    -3
100
AcDbLine
 10
20.67708333333334
 20
-11.98361671828531
 30
0.0
 11
20.58786764705883
 21
-11.832174410593
 31
0.0
  0
LINE
  5
A1
330
1F
100
AcDbEntity
  8
Benennung
  6
Continuous2
 62
     4
420
    65535
370
    -3
100
AcDbLine
 10
20.58786764705883
 20
-11.832174410593
 30
0.0
 11
20.4780637254902
 21
-11.69755902597762
 31
0.0
  0
LINE
  5
A2
330
1F
100
AcDbEntity
  8
Benennung
  6
Continuous2
 62
     4
420
    65535
370
    -3
100
AcDbLine
 10
20.4780637254902
 20
-11.69755902597762
 30
0.0
 11
20.35453431372549
 21
-11.59659748751608
 31
0.0
  0
LINE
  5
A3
330
1F
100
AcDbEntity
  8
Benennung
  6
Continuous2
 62
     4
420
    65535
370
    -3
100
AcDbLine
 10
20.35453431372549
 20
-11.59659748751608
 30
0.0
 11
20.21727941176471
 21
-11.51246287213146
 31
0.0
  0
LINE
  5
A4
330
1F
100
AcDbEntity
  8
Benennung
  6
Continuous2
 62
     4
420
    65535
370
    -3
100
AcDbLine
 10
20.21727941176471
 20
-11.51246287213146
 30
0.0
 11
20.07316176470589
 21
-11.46198210290069
 31
0.0
  0
LINE
  5
A5
330
1F
100
AcDbEntity
  8
Benennung
  6
Continuous2
 62
     4
420
    65535
370
    -3
100
AcDbLine
 10
20.07316176470589
 20
-11.46198210290069
 30
0.0
 11
19.92218137254903
 21
-11.44515517982377
 31
0.0
  0
LINE
  5
A6
330
1F
100
AcDbEntity
  8
Benennung
  6
Continuous2
 62
     4
420
    65535
370
    -3
100
AcDbLine
 10
19.92218137254903
 20
-11.44515517982377
 30
0.0
 11
20.18296568627451
 21
-11.41150133366992
 31
0.0
  0
LINE
  5
A7
330
1F
100
AcDbEntity
  8
Benennung
  6
Continuous2
 62
     4
420
    65535
370
    -3
100
AcDbLine
 10
20.18296568627451
 20
-11.41150133366992
 30
0.0
 11
20.30649509803922
 21
-11.36102056443916
 31
0.0
  0
LINE
  5
A8
330
1F
100
AcDbEntity
  8
Benennung
  6
Continuous2
 62
     4
420
    65535
370
    -3
100
AcDbLine
 10
20.30649509803922
 20
-11.36102056443916
 30
0.0
 11
20.41629901960785
 21
-11.29371287213146
 31
0.0
  0
LINE
  5
A9
330
1F
100
AcDbEntity
  8
Benennung
  6
Continuous2
 62
     4
420
    65535
370
    -3
100
AcDbLine
 10
20.41629901960785
 20
-11.29371287213146
 30
0.0
 11
20.5123774509804
 21
-11.20957825674685
 31
0.0
  0
LINE
  5
AA
330
1F
100
AcDbEntity
  8
Benennung
  6
Continuous2
 62
     4
420
    65535
370
    -3
100
AcDbLine
 10
20.5123774509804
 20
-11.20957825674685
 30
0.0
 11
20.59473039215687
 21
-11.10861671828531
 31
0.0
  0
LINE
  5
AB
330
1F
100
AcDbEntity
  8
Benennung
  6
Continuous2
 62
     4
420
    65535
370
    -3
100
AcDbLine
 10
20.59473039215687
 20
-11.10861671828531
 30
0.0
 11
20.64963235294118
 21
-10.99082825674685
 31
0.0
  0
LINE
  5
AC
330
1F
100
AcDbEntity
  8
Benennung
  6
Continuous2
 62
     4
420
    65535
370
    -3
100
AcDbLine
 10
20.64963235294118
 20
-10.99082825674685
 30
0.0
 11
20.68394607843138
 21
-10.88986671828531
 31
0.0
  0
LINE
  5
AD
330
1F
100
AcDbEntity
  8
Benennung
  6
Continuous2
 62
     4
420
    65535
370
    -3
100
AcDbLine
 10
20.68394607843138
 20
-10.88986671828531
 30
0.0
 11
20.69767156862746
 21
-10.75525133366992
 31
0.0
  0
LINE
  5
AE
330
1F
100
AcDbEntity
  8
Benennung
  6
Continuous2
 62
     4
420
    65535
370
    -3
100
AcDbLine
 10
20.69767156862746
 20
-10.75525133366992
 30
0.0
 11
20.68394607843138
 21
-10.63746287213146
 31
0.0
  0
LINE
  5
AF
330
1F
100
AcDbEntity
  8
Benennung
  6
Continuous2
 62
     4
420
    65535
370
    -3
100
AcDbLine
 10
20.68394607843138
 20
-10.63746287213146
 30
0.0
 11
20.64963235294118
 21
-10.53650133366992
 31
0.0
  0
LINE
  5
B0
330
1F
100
AcDbEntity
  8
Benennung
  6
Continuous2
 62
     4
420
    65535
370
    -3
100
AcDbLine
 10
20.64963235294118
 20
-10.53650133366992
 30
0.0
 11
20.59473039215687
 21
-10.41871287213146
 31
0.0
  0
LINE
  5
B1
330
1F
100
AcDbEntity
  8
Benennung
  6
Continuous2
 62
     4
420
    65535
370
    -3
100
AcDbLine
 10
20.59473039215687
 20
-10.41871287213146
 30
0.0
 11
20.5123774509804
 21
-10.31775133366992
 31
0.0
  0
LINE
  5
B2
330
1F
100
AcDbEntity
  8
Benennung
  6
Continuous2
 62
     4
420
    65535
370
    -3
100
AcDbLine
 10
20.5123774509804
 20
-10.31775133366992
 30
0.0
 11
20.41629901960785
 21
-10.23361671828531
 31
0.0
  0
LINE
  5
B3
330
1F
100
AcDbEntity
  8
Benennung
  6
Continuous2
 62
     4
420
    65535
370
    -3
100
AcDbLine
 10
20.41629901960785
 20
-10.23361671828531
 30
0.0
 11
20.30649509803922
 21
-10.16630902597762
 31
0.0
  0
LINE
  5
B4
330
1F
100
AcDbEntity
  8
Benennung
  6
Continuous2
 62
     4
420
    65535
370
    -3
100
AcDbLine
 10
20.30649509803922
 20
-10.16630902597762
 30
0.0
 11
20.18296568627451
 21
-10.11582825674685
 31
0.0
  0
LINE
  5
B5
330
1F
100
AcDbEntity
  8
Benennung
  6
Continuous2
 62
     4
420
    65535
370
    -3
100
AcDbLine
 10
20.18296568627451
 20
-10.11582825674685
 30
0.0
 11
19.92218137254903
 21
-10.082174410593
 31
0.0
  0
LINE
  5
B6
330
1F
100
AcDbEntity
  8
Benennung
  6
Continuous2
 62
     4
420
    65535
370
    -3
100
AcDbLine
 10
19.92218137254903
 20
-10.082174410593
 30
0.0
 11
19.6545343137255
 21
-10.11582825674685
 31
0.0
  0
LINE
  5
B7
330
1F
100
AcDbEntity
  8
Benennung
  6
Continuous2
 62
     4
420
    65535
370
    -3
100
AcDbLine
 10
19.6545343137255
 20
-10.11582825674685
 30
0.0
 11
19.53100490196079
 21
-10.16630902597762
 31
0.0
  0
LINE
  5
B8
330
1F
100
AcDbEntity
  8
Benennung
  6
Continuous2
 62
     4
420
    65535
370
    -3
100
AcDbLine
 10
19.53100490196079
 20
-10.16630902597762
 30
0.0
 11
19.42120098039216
 21
-10.23361671828531
 31
0.0
  0
LINE
  5
B9
330
1F
100
AcDbEntity
  8
Benennung
  6
Continuous2
 62
     4
420
    65535
370
    -3
100
AcDbLine
 10
19.42120098039216
 20
-10.23361671828531
 30
0.0
 11
19.32512254901961
 21
-10.31775133366992
 31
0.0
  0
LINE
  5
BA
330
1F
100
AcDbEntity
  8
Benennung
  6
Continuous2
 62
     4
420
    65535
370
    -3
100
AcDbLine
 10
19.32512254901961
 20
-10.31775133366992
 30
0.0
 11
19.24276960784314
 21
-10.41871287213146
 31
0.0
  0
LINE
  5
BB
330
1F
100
AcDbEntity
  8
Benennung
  6
Continuous2
 62
     4
420
    65535
370
    -3
100
AcDbLine
 10
19.24276960784314
 20
-10.41871287213146
 30
0.0
 11
19.18786764705883
 21
-10.53650133366992
 31
0.0
  0
LINE
  5
BC
330
1F
100
AcDbEntity
  8
Benennung
  6
Continuous2
 62
     4
420
    65535
370
    -3
100
AcDbLine
 10
19.18786764705883
 20
-10.53650133366992
 30
0.0
 11
19.15355392156863
 21
-10.63746287213146
 31
0.0
  0
LINE
  5
BD
330
1F
100
AcDbEntity
  8
Benennung
  6
Continuous2
 62
     4
420
    65535
370
    -3
100
AcDbLine
 10
19.15355392156863
 20
-10.63746287213146
 30
0.0
 11
19.13982843137255
 21
-10.75525133366992
 31
0.0
  0
LINE
  5
BE
330
1F
100
AcDbEntity
  8
Benennung
  6
Continuous2
 62
     4
420
    65535
370
    -3
100
AcDbLine
 10
22.17316176470589
 20
-10.11582825674685
 30
0.0
 11
22.02218137254902
 21
-10.082174410593
 31
0.0
  0
LINE
  5
BF
330
1F
100
AcDbEntity
  8
Benennung
  6
Continuous2
 62
     4
420
    65535
370
    -3
100
AcDbLine
 10
22.02218137254902
 20
-10.082174410593
 30
0.0
 11
21.86433823529412
 21
-10.11582825674685
 31
0.0
  0
LINE
  5
C0
330
1F
100
AcDbEntity
  8
Benennung
  6
Continuous2
 62
     4
420
    65535
370
    -3
100
AcDbLine
 10
21.86433823529412
 20
-10.11582825674685
 30
0.0
 11
21.7202205882353
 21
-10.18313594905454
 31
0.0
  0
LINE
  5
C1
330
1F
100
AcDbEntity
  8
Benennung
  6
Continuous2
 62
     4
420
    65535
370
    -3
100
AcDbLine
 10
21.7202205882353
 20
-10.18313594905454
 30
0.0
 11
21.58296568627452
 21
-10.31775133366992
 31
0.0
  0
LINE
  5
C2
330
1F
100
AcDbEntity
  8
Benennung
  6
Continuous2
 62
     4
420
    65535
370
    -3
100
AcDbLine
 10
21.58296568627452
 20
-10.31775133366992
 30
0.0
 11
21.45943627450981
 21
-10.48602056443915
 31
0.0
  0
LINE
  5
C3
330
1F
100
AcDbEntity
  8
Benennung
  6
Continuous2
 62
     4
420
    65535
370
    -3
100
AcDbLine
 10
21.45943627450981
 20
-10.48602056443915
 30
0.0
 11
21.34963235294118
 21
-10.70477056443916
 31
0.0
  0
LINE
  5
C4
330
1F
100
AcDbEntity
  8
Benennung
  6
Continuous2
 62
     4
420
    65535
370
    -3
100
AcDbLine
 10
21.34963235294118
 20
-10.70477056443916
 30
0.0
 11
21.26041666666667
 21
-10.957174410593
 31
0.0
  0
LINE
  5
C5
330
1F
100
AcDbEntity
  8
Benennung
  6
Continuous2
 62
     4
420
    65535
370
    -3
100
AcDbLine
 10
21.26041666666667
 20
-10.957174410593
 30
0.0
 11
21.19865196078432
 21
-11.22640517982377
 31
0.0
  0
LINE
  5
C6
330
1F
100
AcDbEntity
  8
Benennung
  6
Continuous2
 62
     4
420
    65535
370
    -3
100
AcDbLine
 10
21.19865196078432
 20
-11.22640517982377
 30
0.0
 11
21.15747549019608
 21
-11.52928979520839
 31
0.0
  0
LINE
  5
C7
330
1F
100
AcDbEntity
  8
Benennung
  6
Continuous2
 62
     4
420
    65535
370
    -3
100
AcDbLine
 10
21.15747549019608
 20
-11.52928979520839
 30
0.0
 11
21.14375
 21
-11.832174410593
 31
0.0
  0
LINE
  5
C8
330
1F
100
AcDbEntity
  8
Benennung
  6
Continuous2
 62
     4
420
    65535
370
    -3
100
AcDbLine
 10
21.14375
 20
-11.832174410593
 30
0.0
 11
21.15747549019608
 21
-12.13505902597762
 31
0.0
  0
LINE
  5
C9
330
1F
100
AcDbEntity
  8
Benennung
  6
Continuous2
 62
     4
420
    65535
370
    -3
100
AcDbLine
 10
21.15747549019608
 20
-12.13505902597762
 30
0.0
 11
21.19865196078432
 21
-12.43794364136223
 31
0.0
  0
LINE
  5
CA
330
1F
100
AcDbEntity
  8
Benennung
  6
Continuous2
 62
     4
420
    65535
370
    -3
100
AcDbLine
 10
21.19865196078432
 20
-12.43794364136223
 30
0.0
 11
21.26041666666667
 21
-12.707174410593
 31
0.0
  0
LINE
  5
CB
330
1F
100
AcDbEntity
  8
Benennung
  6
Continuous2
 62
     4
420
    65535
370
    -3
100
AcDbLine
 10
21.26041666666667
 20
-12.707174410593
 30
0.0
 11
21.34963235294118
 21
-12.95957825674685
 31
0.0
  0
LINE
  5
CC
330
1F
100
AcDbEntity
  8
Benennung
  6
Continuous2
 62
     4
420
    65535
370
    -3
100
AcDbLine
 10
21.34963235294118
 20
-12.95957825674685
 30
0.0
 11
21.45943627450981
 21
-13.17832825674685
 31
0.0
  0
LINE
  5
CD
330
1F
100
AcDbEntity
  8
Benennung
  6
Continuous2
 62
     4
420
    65535
370
    -3
100
AcDbLine
 10
21.45943627450981
 20
-13.17832825674685
 30
0.0
 11
21.58296568627452
 21
-13.34659748751608
 31
0.0
  0
LINE
  5
CE
330
1F
100
AcDbEntity
  8
Benennung
  6
Continuous2
 62
     4
420
    65535
370
    -3
100
AcDbLine
 10
21.58296568627452
 20
-13.34659748751608
 30
0.0
 11
21.7202205882353
 21
-13.48121287213146
 31
0.0
  0
LINE
  5
CF
330
1F
100
AcDbEntity
  8
Benennung
  6
Continuous2
 62
     4
420
    65535
370
    -3
100
AcDbLine
 10
21.7202205882353
 20
-13.48121287213146
 30
0.0
 11
21.86433823529412
 21
-13.54852056443916
 31
0.0
  0
LINE
  5
D0
330
1F
100
AcDbEntity
  8
Benennung
  6
Continuous2
 62
     4
420
    65535
370
    -3
100
AcDbLine
 10
21.86433823529412
 20
-13.54852056443916
 30
0.0
 11
22.02218137254902
 21
-13.582174410593
 31
0.0
  0
LINE
  5
D1
330
1F
100
AcDbEntity
  8
Benennung
  6
Continuous2
 62
     4
420
    65535
370
    -3
100
AcDbLine
 10
22.02218137254902
 20
-13.582174410593
 30
0.0
 11
22.17316176470589
 21
-13.54852056443916
 31
0.0
  0
LINE
  5
D2
330
1F
100
AcDbEntity
  8
Benennung
  6
Continuous2
 62
     4
420
    65535
370
    -3
100
AcDbLine
 10
22.17316176470589
 20
-13.54852056443916
 30
0.0
 11
22.31727941176471
 21
-13.48121287213146
 31
0.0
  0
LINE
  5
D3
330
1F
100
AcDbEntity
  8
Benennung
  6
Continuous2
 62
     4
420
    65535
370
    -3
100
AcDbLine
 10
22.31727941176471
 20
-13.48121287213146
 30
0.0
 11
22.4545343137255
 21
-13.34659748751608
 31
0.0
  0
LINE
  5
D4
330
1F
100
AcDbEntity
  8
Benennung
  6
Continuous2
 62
     4
420
    65535
370
    -3
100
AcDbLine
 10
22.4545343137255
 20
-13.34659748751608
 30
0.0
 11
22.5780637254902
 21
-13.17832825674685
 31
0.0
  0
LINE
  5
D5
330
1F
100
AcDbEntity
  8
Benennung
  6
Continuous2
 62
     4
420
    65535
370
    -3
100
AcDbLine
 10
22.5780637254902
 20
-13.17832825674685
 30
0.0
 11
22.68786764705883
 21
-12.95957825674685
 31
0.0
  0
LINE
  5
D6
330
1F
100
AcDbEntity
  8
Benennung
  6
Continuous2
 62
     4
420
    65535
370
    -3
100
AcDbLine
 10
22.68786764705883
 20
-12.95957825674685
 30
0.0
 11
22.77708333333334
 21
-12.707174410593
 31
0.0
  0
LINE
  5
D7
330
1F
100
AcDbEntity
  8
Benennung
  6
Continuous2
 62
     4
420
    65535
370
    -3
100
AcDbLine
 10
22.77708333333334
 20
-12.707174410593
 30
0.0
 11
22.83884803921569
 21
-12.43794364136223
 31
0.0
  0
LINE
  5
D8
330
1F
100
AcDbEntity
  8
Benennung
  6
Continuous2
 62
     4
420
    65535
370
    -3
100
AcDbLine
 10
22.83884803921569
 20
-12.43794364136223
 30
0.0
 11
22.88002450980392
 21
-12.13505902597762
 31
0.0
  0
LINE
  5
D9
330
1F
100
AcDbEntity
  8
Benennung
  6
Continuous2
 62
     4
420
    65535
370
    -3
100
AcDbLine
 10
22.88002450980392
 20
-12.13505902597762
 30
0.0
 11
22.89375
 21
-11.832174410593
 31
0.0
  0
LINE
  5
DA
330
1F
100
AcDbEntity
  8
Benennung
  6
Continuous2
 62
     4
420
    65535
370
    -3
100
AcDbLine
 10
22.89375
 20
-11.832174410593
 30
0.0
 11
22.88002450980392
 21
-11.52928979520839
 31
0.0
  0
LINE
  5
DB
330
1F
100
AcDbEntity
  8
Benennung
  6
Continuous2
 62
     4
420
    65535
370
    -3
100
AcDbLine
 10
22.88002450980392
 20
-11.52928979520839
 30
0.0
 11
22.83884803921569
 21
-11.22640517982377
 31
0.0
  0
LINE
  5
DC
330
1F
100
AcDbEntity
  8
Benennung
  6
Continuous2
 62
     4
420
    65535
370
    -3
100
AcDbLine
 10
22.83884803921569
 20
-11.22640517982377
 30
0.0
 11
22.77708333333334
 21
-10.957174410593
 31
0.0
  0
LINE
  5
DD
330
1F
100
AcDbEntity
  8
Benennung
  6
Continuous2
 62
     4
420
    65535
370
    -3
100
AcDbLine
 10
22.77708333333334
 20
-10.957174410593
 30
0.0
 11
22.68786764705883
 21
-10.70477056443916
 31
0.0
  0
LINE
  5
DE
330
1F
100
AcDbEntity
  8
Benennung
  6
Continuous2
 62
     4
420
    65535
370
    -3
100
AcDbLine
 10
22.68786764705883
 20
-10.70477056443916
 30
0.0
 11
22.5780637254902
 21
-10.48602056443915
 31
0.0
  0
LINE
  5
DF
330
1F
100
AcDbEntity
  8
Benennung
  6
Continuous2
 62
     4
420
    65535
370
    -3
100
AcDbLine
 10
22.5780637254902
 20
-10.48602056443915
 30
0.0
 11
22.4545343137255
 21
-10.31775133366992
 31
0.0
  0
LINE
  5
E0
330
1F
100
AcDbEntity
  8
Benennung
  6
Continuous2
 62
     4
420
    65535
370
    -3
100
AcDbLine
 10
22.4545343137255
 20
-10.31775133366992
 30
0.0
 11
22.31727941176471
 21
-10.18313594905454
 31
0.0
  0
LINE
  5
E1
330
1F
100
AcDbEntity
  8
Benennung
  6
Continuous2
 62
     4
420
    65535
370
    -3
100
AcDbLine
 10
22.31727941176471
 20
-10.18313594905454
 30
0.0
 11
22.17316176470589
 21
-10.11582825674685
 31
0.0
  0
LINE
  5
E2
330
1F
100
AcDbEntity
  8
Benennung
  6
Continuous2
 62
     4
420
    65535
370
    -3
100
AcDbLine
 10
23.55943627450981
 20
-12.03409748751608
 30
0.0
 11
23.44963235294118
 21
-12.15188594905454
 31
0.0
  0
LINE
  5
E3
330
1F
100
AcDbEntity
  8
Benennung
  6
Continuous2
 62
     4
420
    65535
370
    -3
100
AcDbLine
 10
23.44963235294118
 20
-12.15188594905454
 30
0.0
 11
23.36041666666667
 21
-12.269674410593
 31
0.0
  0
LINE
  5
E4
330
1F
100
AcDbEntity
  8
Benennung
  6
Continuous2
 62
     4
420
    65535
370
    -3
100
AcDbLine
 10
23.36041666666667
 20
-12.269674410593
 30
0.0
 11
23.29865196078432
 21
-12.40428979520839
 31
0.0
  0
LINE
  5
E5
330
1F
100
AcDbEntity
  8
Benennung
  6
Continuous2
 62
     4
420
    65535
370
    -3
100
AcDbLine
 10
23.29865196078432
 20
-12.40428979520839
 30
0.0
 11
23.25747549019609
 21
-12.55573210290069
 31
0.0
  0
LINE
  5
E6
330
1F
100
AcDbEntity
  8
Benennung
  6
Continuous2
 62
     4
420
    65535
370
    -3
100
AcDbLine
 10
23.25747549019609
 20
-12.55573210290069
 30
0.0
 11
23.24375000000001
 21
-12.707174410593
 31
0.0
  0
LINE
  5
E7
330
1F
100
AcDbEntity
  8
Benennung
  6
Continuous2
 62
     4
420
    65535
370
    -3
100
AcDbLine
 10
23.24375000000001
 20
-12.707174410593
 30
0.0
 11
23.25747549019609
 21
-12.85861671828531
 31
0.0
  0
LINE
  5
E8
330
1F
100
AcDbEntity
  8
Benennung
  6
Continuous2
 62
     4
420
    65535
370
    -3
100
AcDbLine
 10
23.25747549019609
 20
-12.85861671828531
 30
0.0
 11
23.29865196078432
 21
-13.01005902597762
 31
0.0
  0
LINE
  5
E9
330
1F
100
AcDbEntity
  8
Benennung
  6
Continuous2
 62
     4
420
    65535
370
    -3
100
AcDbLine
 10
23.29865196078432
 20
-13.01005902597762
 30
0.0
 11
23.36041666666667
 21
-13.144674410593
 31
0.0
  0
LINE
  5
EA
330
1F
100
AcDbEntity
  8
Benennung
  6
Continuous2
 62
     4
420
    65535
370
    -3
100
AcDbLine
 10
23.36041666666667
 20
-13.144674410593
 30
0.0
 11
23.44963235294118
 21
-13.26246287213146
 31
0.0
  0
LINE
  5
EB
330
1F
100
AcDbEntity
  8
Benennung
  6
Continuous2
 62
     4
420
    65535
370
    -3
100
AcDbLine
 10
23.44963235294118
 20
-13.26246287213146
 30
0.0
 11
23.55943627450981
 21
-13.38025133366992
 31
0.0
  0
LINE
  5
EC
330
1F
100
AcDbEntity
  8
Benennung
  6
Continuous2
 62
     4
420
    65535
370
    -3
100
AcDbLine
 10
23.55943627450981
 20
-13.38025133366992
 30
0.0
 11
23.68296568627451
 21
-13.46438594905454
 31
0.0
  0
LINE
  5
ED
330
1F
100
AcDbEntity
  8
Benennung
  6
Continuous2
 62
     4
420
    65535
370
    -3
100
AcDbLine
 10
23.68296568627451
 20
-13.46438594905454
 30
0.0
 11
23.8202205882353
 21
-13.53169364136223
 31
0.0
  0
LINE
  5
EE
330
1F
100
AcDbEntity
  8
Benennung
  6
Continuous2
 62
     4
420
    65535
370
    -3
100
AcDbLine
 10
23.8202205882353
 20
-13.53169364136223
 30
0.0
 11
23.96433823529412
 21
-13.56534748751608
 31
0.0
  0
LINE
  5
EF
330
1F
100
AcDbEntity
  8
Benennung
  6
Continuous2
 62
     4
420
    65535
370
    -3
100
AcDbLine
 10
23.96433823529412
 20
-13.56534748751608
 30
0.0
 11
24.12218137254902
 21
-13.582174410593
 31
0.0
  0
LINE
  5
F0
330
1F
100
AcDbEntity
  8
Benennung
  6
Continuous2
 62
     4
420
    65535
370
    -3
100
AcDbLine
 10
24.12218137254902
 20
-13.582174410593
 30
0.0
 11
24.27316176470589
 21
-13.56534748751608
 31
0.0
  0
LINE
  5
F1
330
1F
100
AcDbEntity
  8
Benennung
  6
Continuous2
 62
     4
420
    65535
370
    -3
100
AcDbLine
 10
24.27316176470589
 20
-13.56534748751608
 30
0.0
 11
24.41727941176471
 21
-13.53169364136223
 31
0.0
  0
LINE
  5
F2
330
1F
100
AcDbEntity
  8
Benennung
  6
Continuous2
 62
     4
420
    65535
370
    -3
100
AcDbLine
 10
24.41727941176471
 20
-13.53169364136223
 30
0.0
 11
24.5545343137255
 21
-13.46438594905454
 31
0.0
  0
LINE
  5
F3
330
1F
100
AcDbEntity
  8
Benennung
  6
Continuous2
 62
     4
420
    65535
370
    -3
100
AcDbLine
 10
24.5545343137255
 20
-13.46438594905454
 30
0.0
 11
24.6780637254902
 21
-13.38025133366992
 31
0.0
  0
LINE
  5
F4
330
1F
100
AcDbEntity
  8
Benennung
  6
Continuous2
 62
     4
420
    65535
370
    -3
100
AcDbLine
 10
24.6780637254902
 20
-13.38025133366992
 30
0.0
 11
24.78786764705883
 21
-13.26246287213146
 31
0.0
  0
LINE
  5
F5
330
1F
100
AcDbEntity
  8
Benennung
  6
Continuous2
 62
     4
420
    65535
370
    -3
100
AcDbLine
 10
24.78786764705883
 20
-13.26246287213146
 30
0.0
 11
24.87708333333334
 21
-13.144674410593
 31
0.0
  0
LINE
  5
F6
330
1F
100
AcDbEntity
  8
Benennung
  6
Continuous2
 62
     4
420
    65535
370
    -3
100
AcDbLine
 10
24.87708333333334
 20
-13.144674410593
 30
0.0
 11
24.93884803921569
 21
-13.01005902597762
 31
0.0
  0
LINE
  5
F7
330
1F
100
AcDbEntity
  8
Benennung
  6
Continuous2
 62
     4
420
    65535
370
    -3
100
AcDbLine
 10
24.93884803921569
 20
-13.01005902597762
 30
0.0
 11
24.98002450980393
 21
-12.85861671828531
 31
0.0
  0
LINE
  5
F8
330
1F
100
AcDbEntity
  8
Benennung
  6
Continuous2
 62
     4
420
    65535
370
    -3
100
AcDbLine
 10
24.98002450980393
 20
-12.85861671828531
 30
0.0
 11
24.99375000000001
 21
-12.707174410593
 31
0.0
  0
LINE
  5
F9
330
1F
100
AcDbEntity
  8
Benennung
  6
Continuous2
 62
     4
420
    65535
370
    -3
100
AcDbLine
 10
24.99375000000001
 20
-12.707174410593
 30
0.0
 11
24.98002450980393
 21
-12.55573210290069
 31
0.0
  0
LINE
  5
FA
330
1F
100
AcDbEntity
  8
Benennung
  6
Continuous2
 62
     4
420
    65535
370
    -3
100
AcDbLine
 10
24.98002450980393
 20
-12.55573210290069
 30
0.0
 11
24.93884803921569
 21
-12.40428979520839
 31
0.0
  0
LINE
  5
FB
330
1F
100
AcDbEntity
  8
Benennung
  6
Continuous2
 62
     4
420
    65535
370
    -3
100
AcDbLine
 10
24.93884803921569
 20
-12.40428979520839
 30
0.0
 11
24.87708333333334
 21
-12.269674410593
 31
0.0
  0
LINE
  5
FC
330
1F
100
AcDbEntity
  8
Benennung
  6
Continuous2
 62
     4
420
    65535
370
    -3
100
AcDbLine
 10
24.87708333333334
 20
-12.269674410593
 30
0.0
 11
24.78786764705883
 21
-12.15188594905454
 31
0.0
  0
LINE
  5
FD
330
1F
100
AcDbEntity
  8
Benennung
  6
Continuous2
 62
     4
420
    65535
370
    -3
100
AcDbLine
 10
24.78786764705883
 20
-12.15188594905454
 30
0.0
 11
24.6780637254902
 21
-12.03409748751608
 31
0.0
  0
LINE
  5
FE
330
1F
100
AcDbEntity
  8
Benennung
  6
Continuous2
 62
     4
420
    65535
370
    -3
100
AcDbLine
 10
24.6780637254902
 20
-12.03409748751608
 30
0.0
 11
24.5545343137255
 21
-11.94996287213146
 31
0.0
  0
LINE
  5
FF
330
1F
100
AcDbEntity
  8
Benennung
  6
Continuous2
 62
     4
420
    65535
370
    -3
100
AcDbLine
 10
24.5545343137255
 20
-11.94996287213146
 30
0.0
 11
24.41727941176471
 21
-11.88265517982377
 31
0.0
  0
LINE
  5
100
330
1F
100
AcDbEntity
  8
Benennung
  6
Continuous2
 62
     4
420
    65535
370
    -3
100
AcDbLine
 10
24.41727941176471
 20
-11.88265517982377
 30
0.0
 11
24.27316176470589
 21
-11.84900133366992
 31
0.0
  0
LINE
  5
101
330
1F
100
AcDbEntity
  8
Benennung
  6
Continuous2
 62
     4
420
    65535
370
    -3
100
AcDbLine
 10
24.27316176470589
 20
-11.84900133366992
 30
0.0
 11
24.12218137254902
 21
-11.832174410593
 31
0.0
  0
LINE
  5
102
330
1F
100
AcDbEntity
  8
Benennung
  6
Continuous2
 62
     4
420
    65535
370
    -3
100
AcDbLine
 10
24.12218137254902
 20
-11.832174410593
 30
0.0
 11
23.96433823529412
 21
-11.84900133366992
 31
0.0
  0
LINE
  5
103
330
1F
100
AcDbEntity
  8
Benennung
  6
Continuous2
 62
     4
420
    65535
370
    -3
100
AcDbLine
 10
23.96433823529412
 20
-11.84900133366992
 30
0.0
 11
23.8202205882353
 21
-11.88265517982377
 31
0.0
  0
LINE
  5
104
330
1F
100
AcDbEntity
  8
Benennung
  6
Continuous2
 62
     4
420
    65535
370
    -3
100
AcDbLine
 10
23.8202205882353
 20
-11.88265517982377
 30
0.0
 11
23.68296568627451
 21
-11.94996287213146
 31
0.0
  0
LINE
  5
105
330
1F
100
AcDbEntity
  8
Benennung
  6
Continuous2
 62
     4
420
    65535
370
    -3
100
AcDbLine
 10
23.68296568627451
 20
-11.94996287213146
 30
0.0
 11
23.55943627450981
 21
-12.03409748751608
 31
0.0
  0
LINE
  5
106
330
1F
100
AcDbEntity
  8
Benennung
  6
Continuous2
 62
     4
420
    65535
370
    -3
100
AcDbLine
 10
23.44963235294118
 20
-12.15188594905454
 30
0.0
 11
24.99375000000001
 21
-10.082174410593
 31
0.0
  0
LINE
  5
107
330
1F
100
AcDbEntity
  8
Benennung
  6
Continuous2
 62
     4
420
    65535
370
    -3
100
AcDbLine
 10
25.34375000000001
 20
-13.04371287213146
 30
0.0
 11
25.43982843137255
 21
-13.19515517982377
 31
0.0
  0
LINE
  5
108
330
1F
100
AcDbEntity
  8
Benennung
  6
Continuous2
 62
     4
420
    65535
370
    -3
100
AcDbLine
 10
25.43982843137255
 20
-13.19515517982377
 30
0.0
 11
25.55649509803922
 21
-13.32977056443916
 31
0.0
  0
LINE
  5
109
330
1F
100
AcDbEntity
  8
Benennung
  6
Continuous2
 62
     4
420
    65535
370
    -3
100
AcDbLine
 10
25.55649509803922
 20
-13.32977056443916
 30
0.0
 11
25.68688725490197
 21
-13.43073210290069
 31
0.0
  0
LINE
  5
10A
330
1F
100
AcDbEntity
  8
Benennung
  6
Continuous2
 62
     4
420
    65535
370
    -3
100
AcDbLine
 10
25.68688725490197
 20
-13.43073210290069
 30
0.0
 11
25.83786764705883
 21
-13.51486671828531
 31
0.0
  0
LINE
  5
10B
330
1F
100
AcDbEntity
  8
Benennung
  6
Continuous2
 62
     4
420
    65535
370
    -3
100
AcDbLine
 10
25.83786764705883
 20
-13.51486671828531
 30
0.0
 11
25.99571078431373
 21
-13.56534748751608
 31
0.0
  0
LINE
  5
10C
330
1F
100
AcDbEntity
  8
Benennung
  6
Continuous2
 62
     4
420
    65535
370
    -3
100
AcDbLine
 10
25.99571078431373
 20
-13.56534748751608
 30
0.0
 11
26.15355392156863
 21
-13.582174410593
 31
0.0
  0
LINE
  5
10D
330
1F
100
AcDbEntity
  8
Benennung
  6
Continuous2
 62
     4
420
    65535
370
    -3
100
AcDbLine
 10
26.15355392156863
 20
-13.582174410593
 30
0.0
 11
26.31825980392157
 21
-13.56534748751608
 31
0.0
  0
LINE
  5
10E
330
1F
100
AcDbEntity
  8
Benennung
  6
Continuous2
 62
     4
420
    65535
370
    -3
100
AcDbLine
 10
26.31825980392157
 20
-13.56534748751608
 30
0.0
 11
26.47610294117648
 21
-13.51486671828531
 31
0.0
  0
LINE
  5
10F
330
1F
100
AcDbEntity
  8
Benennung
  6
Continuous2
 62
     4
420
    65535
370
    -3
100
AcDbLine
 10
26.47610294117648
 20
-13.51486671828531
 30
0.0
 11
26.62708333333334
 21
-13.43073210290069
 31
0.0
  0
LINE
  5
110
330
1F
100
AcDbEntity
  8
Benennung
  6
Continuous2
 62
     4
420
    65535
370
    -3
100
AcDbLine
 10
26.62708333333334
 20
-13.43073210290069
 30
0.0
 11
26.75747549019609
 21
-13.32977056443916
 31
0.0
  0
LINE
  5
111
330
1F
100
AcDbEntity
  8
Benennung
  6
Continuous2
 62
     4
420
    65535
370
    -3
100
AcDbLine
 10
26.75747549019609
 20
-13.32977056443916
 30
0.0
 11
26.87414215686275
 21
-13.19515517982377
 31
0.0
  0
LINE
  5
112
330
1F
100
AcDbEntity
  8
Benennung
  6
Continuous2
 62
     4
420
    65535
370
    -3
100
AcDbLine
 10
26.87414215686275
 20
-13.19515517982377
 30
0.0
 11
26.9702205882353
 21
-13.04371287213146
 31
0.0
  0
LINE
  5
113
330
1F
100
AcDbEntity
  8
Benennung
  6
Continuous2
 62
     4
420
    65535
370
    -3
100
AcDbLine
 10
26.9702205882353
 20
-13.04371287213146
 30
0.0
 11
27.03884803921569
 21
-12.87544364136223
 31
0.0
  0
LINE
  5
114
330
1F
100
AcDbEntity
  8
Benennung
  6
Continuous2
 62
     4
420
    65535
370
    -3
100
AcDbLine
 10
27.03884803921569
 20
-12.87544364136223
 30
0.0
 11
27.08002450980393
 21
-12.707174410593
 31
0.0
  0
LINE
  5
115
330
1F
100
AcDbEntity
  8
Benennung
  6
Continuous2
 62
     4
420
    65535
370
    -3
100
AcDbLine
 10
27.08002450980393
 20
-12.707174410593
 30
0.0
 11
27.09375000000001
 21
-12.50525133366992
 31
0.0
  0
LINE
  5
116
330
1F
100
AcDbEntity
  8
Benennung
  6
Continuous2
 62
     4
420
    65535
370
    -3
100
AcDbLine
 10
27.09375000000001
 20
-12.50525133366992
 30
0.0
 11
27.08002450980393
 21
-12.32015517982377
 31
0.0
  0
LINE
  5
117
330
1F
100
AcDbEntity
  8
Benennung
  6
Continuous2
 62
     4
420
    65535
370
    -3
100
AcDbLine
 10
27.08002450980393
 20
-12.32015517982377
 30
0.0
 11
27.03884803921569
 21
-12.15188594905454
 31
0.0
  0
LINE
  5
118
330
1F
100
AcDbEntity
  8
Benennung
  6
Continuous2
 62
     4
420
    65535
370
    -3
100
AcDbLine
 10
27.03884803921569
 20
-12.15188594905454
 30
0.0
 11
26.9702205882353
 21
-11.98361671828531
 31
0.0
  0
LINE
  5
119
330
1F
100
AcDbEntity
  8
Benennung
  6
Continuous2
 62
     4
420
    65535
370
    -3
100
AcDbLine
 10
26.9702205882353
 20
-11.98361671828531
 30
0.0
 11
26.87414215686275
 21
-11.832174410593
 31
0.0
  0
LINE
  5
11A
330
1F
100
AcDbEntity
  8
Benennung
  6
Continuous2
 62
     4
420
    65535
370
    -3
100
AcDbLine
 10
26.87414215686275
 20
-11.832174410593
 30
0.0
 11
26.75747549019609
 21
-11.69755902597762
 31
0.0
  0
LINE
  5
11B
330
1F
100
AcDbEntity
  8
Benennung
  6
Continuous2
 62
     4
420
    65535
370
    -3
100
AcDbLine
 10
26.75747549019609
 20
-11.69755902597762
 30
0.0
 11
26.62708333333334
 21
-11.59659748751608
 31
0.0
  0
LINE
  5
11C
330
1F
100
AcDbEntity
  8
Benennung
  6
Continuous2
 62
     4
420
    65535
370
    -3
100
AcDbLine
 10
26.62708333333334
 20
-11.59659748751608
 30
0.0
 11
26.47610294117648
 21
-11.51246287213146
 31
0.0
  0
LINE
  5
11D
330
1F
100
AcDbEntity
  8
Benennung
  6
Continuous2
 62
     4
420
    65535
370
    -3
100
AcDbLine
 10
26.47610294117648
 20
-11.51246287213146
 30
0.0
 11
26.31825980392157
 21
-11.46198210290069
 31
0.0
  0
LINE
  5
11E
330
1F
100
AcDbEntity
  8
Benennung
  6
Continuous2
 62
     4
420
    65535
370
    -3
100
AcDbLine
 10
26.31825980392157
 20
-11.46198210290069
 30
0.0
 11
26.15355392156863
 21
-11.44515517982377
 31
0.0
  0
LINE
  5
11F
330
1F
100
AcDbEntity
  8
Benennung
  6
Continuous2
 62
     4
420
    65535
370
    -3
100
AcDbLine
 10
26.15355392156863
 20
-11.44515517982377
 30
0.0
 11
25.99571078431373
 21
-11.46198210290069
 31
0.0
  0
LINE
  5
120
330
1F
100
AcDbEntity
  8
Benennung
  6
Continuous2
 62
     4
420
    65535
370
    -3
100
AcDbLine
 10
25.99571078431373
 20
-11.46198210290069
 30
0.0
 11
25.83786764705883
 21
-11.51246287213146
 31
0.0
  0
LINE
  5
121
330
1F
100
AcDbEntity
  8
Benennung
  6
Continuous2
 62
     4
420
    65535
370
    -3
100
AcDbLine
 10
25.83786764705883
 20
-11.51246287213146
 30
0.0
 11
25.68688725490197
 21
-11.59659748751608
 31
0.0
  0
LINE
  5
122
330
1F
100
AcDbEntity
  8
Benennung
  6
Continuous2
 62
     4
420
    65535
370
    -3
100
AcDbLine
 10
25.68688725490197
 20
-11.59659748751608
 30
0.0
 11
25.55649509803922
 21
-11.69755902597762
 31
0.0
  0
LINE
  5
123
330
1F
100
AcDbEntity
  8
Benennung
  6
Continuous2
 62
     4
420
    65535
370
    -3
100
AcDbLine
 10
25.55649509803922
 20
-11.69755902597762
 30
0.0
 11
25.43982843137255
 21
-11.832174410593
 31
0.0
  0
LINE
  5
124
330
1F
100
AcDbEntity
  8
Benennung
  6
Continuous2
 62
     4
420
    65535
370
    -3
100
AcDbLine
 10
25.43982843137255
 20
-11.832174410593
 30
0.0
 11
25.36433823529412
 21
-11.94996287213146
 31
0.0
  0
LINE
  5
125
330
1F
100
AcDbEntity
  8
Benennung
  6
Continuous2
 62
     4
420
    65535
370
    -3
100
AcDbLine
 10
25.36433823529412
 20
-11.94996287213146
 30
0.0
 11
25.36433823529412
 21
-10.082174410593
 31
0.0
  0
LINE
  5
126
330
1F
100
AcDbEntity
  8
Benennung
  6
Continuous2
 62
     4
420
    65535
370
    -3
100
AcDbLine
 10
25.36433823529412
 20
-10.082174410593
 30
0.0
 11
27.09375000000001
 21
-10.082174410593
 31
0.0
  0
LINE
  5
127
330
1F
100
AcDbEntity
  8
Benennung
  6
Continuous2
 62
     4
420
    65535
370
    -3
100
AcDbLine
 10
27.44375
 20
-13.04371287213146
 30
0.0
 11
27.53982843137256
 21
-13.19515517982377
 31
0.0
  0
LINE
  5
128
330
1F
100
AcDbEntity
  8
Benennung
  6
Continuous2
 62
     4
420
    65535
370
    -3
100
AcDbLine
 10
27.53982843137256
 20
-13.19515517982377
 30
0.0
 11
27.65649509803922
 21
-13.32977056443916
 31
0.0
  0
LINE
  5
129
330
1F
100
AcDbEntity
  8
Benennung
  6
Continuous2
 62
     4
420
    65535
370
    -3
100
AcDbLine
 10
27.65649509803922
 20
-13.32977056443916
 30
0.0
 11
27.78688725490197
 21
-13.43073210290069
 31
0.0
  0
LINE
  5
12A
330
1F
100
AcDbEntity
  8
Benennung
  6
Continuous2
 62
     4
420
    65535
370
    -3
100
AcDbLine
 10
27.78688725490197
 20
-13.43073210290069
 30
0.0
 11
27.93786764705883
 21
-13.51486671828531
 31
0.0
  0
LINE
  5
12B
330
1F
100
AcDbEntity
  8
Benennung
  6
Continuous2
 62
     4
420
    65535
370
    -3
100
AcDbLine
 10
27.93786764705883
 20
-13.51486671828531
 30
0.0
 11
28.09571078431373
 21
-13.56534748751608
 31
0.0
  0
LINE
  5
12C
330
1F
100
AcDbEntity
  8
Benennung
  6
Continuous2
 62
     4
420
    65535
370
    -3
100
AcDbLine
 10
28.09571078431373
 20
-13.56534748751608
 30
0.0
 11
28.25355392156863
 21
-13.582174410593
 31
0.0
  0
LINE
  5
12D
330
1F
100
AcDbEntity
  8
Benennung
  6
Continuous2
 62
     4
420
    65535
370
    -3
100
AcDbLine
 10
28.25355392156863
 20
-13.582174410593
 30
0.0
 11
28.41825980392157
 21
-13.56534748751608
 31
0.0
  0
LINE
  5
12E
330
1F
100
AcDbEntity
  8
Benennung
  6
Continuous2
 62
     4
420
    65535
370
    -3
100
AcDbLine
 10
28.41825980392157
 20
-13.56534748751608
 30
0.0
 11
28.57610294117648
 21
-13.51486671828531
 31
0.0
  0
LINE
  5
12F
330
1F
100
AcDbEntity
  8
Benennung
  6
Continuous2
 62
     4
420
    65535
370
    -3
100
AcDbLine
 10
28.57610294117648
 20
-13.51486671828531
 30
0.0
 11
28.72708333333334
 21
-13.43073210290069
 31
0.0
  0
LINE
  5
130
330
1F
100
AcDbEntity
  8
Benennung
  6
Continuous2
 62
     4
420
    65535
370
    -3
100
AcDbLine
 10
28.72708333333334
 20
-13.43073210290069
 30
0.0
 11
28.85747549019608
 21
-13.32977056443916
 31
0.0
  0
LINE
  5
131
330
1F
100
AcDbEntity
  8
Benennung
  6
Continuous2
 62
     4
420
    65535
370
    -3
100
AcDbLine
 10
28.85747549019608
 20
-13.32977056443916
 30
0.0
 11
28.97414215686275
 21
-13.19515517982377
 31
0.0
  0
LINE
  5
132
330
1F
100
AcDbEntity
  8
Benennung
  6
Continuous2
 62
     4
420
    65535
370
    -3
100
AcDbLine
 10
28.97414215686275
 20
-13.19515517982377
 30
0.0
 11
29.0702205882353
 21
-13.04371287213146
 31
0.0
  0
LINE
  5
133
330
1F
100
AcDbEntity
  8
Benennung
  6
Continuous2
 62
     4
420
    65535
370
    -3
100
AcDbLine
 10
29.0702205882353
 20
-13.04371287213146
 30
0.0
 11
29.13884803921569
 21
-12.87544364136223
 31
0.0
  0
LINE
  5
134
330
1F
100
AcDbEntity
  8
Benennung
  6
Continuous2
 62
     4
420
    65535
370
    -3
100
AcDbLine
 10
29.13884803921569
 20
-12.87544364136223
 30
0.0
 11
29.18002450980393
 21
-12.707174410593
 31
0.0
  0
LINE
  5
135
330
1F
100
AcDbEntity
  8
Benennung
  6
Continuous2
 62
     4
420
    65535
370
    -3
100
AcDbLine
 10
29.18002450980393
 20
-12.707174410593
 30
0.0
 11
29.19375
 21
-12.50525133366992
 31
0.0
  0
LINE
  5
136
330
1F
100
AcDbEntity
  8
Benennung
  6
Continuous2
 62
     4
420
    65535
370
    -3
100
AcDbLine
 10
29.19375
 20
-12.50525133366992
 30
0.0
 11
29.18002450980393
 21
-12.32015517982377
 31
0.0
  0
LINE
  5
137
330
1F
100
AcDbEntity
  8
Benennung
  6
Continuous2
 62
     4
420
    65535
370
    -3
100
AcDbLine
 10
29.18002450980393
 20
-12.32015517982377
 30
0.0
 11
29.13884803921569
 21
-12.15188594905454
 31
0.0
  0
LINE
  5
138
330
1F
100
AcDbEntity
  8
Benennung
  6
Continuous2
 62
     4
420
    65535
370
    -3
100
AcDbLine
 10
29.13884803921569
 20
-12.15188594905454
 30
0.0
 11
29.0702205882353
 21
-11.98361671828531
 31
0.0
  0
LINE
  5
139
330
1F
100
AcDbEntity
  8
Benennung
  6
Continuous2
 62
     4
420
    65535
370
    -3
100
AcDbLine
 10
29.0702205882353
 20
-11.98361671828531
 30
0.0
 11
28.97414215686275
 21
-11.832174410593
 31
0.0
  0
LINE
  5
13A
330
1F
100
AcDbEntity
  8
Benennung
  6
Continuous2
 62
     4
420
    65535
370
    -3
100
AcDbLine
 10
28.97414215686275
 20
-11.832174410593
 30
0.0
 11
28.85747549019608
 21
-11.69755902597762
 31
0.0
  0
LINE
  5
13B
330
1F
100
AcDbEntity
  8
Benennung
  6
Continuous2
 62
     4
420
    65535
370
    -3
100
AcDbLine
 10
28.85747549019608
 20
-11.69755902597762
 30
0.0
 11
28.72708333333334
 21
-11.59659748751608
 31
0.0
  0
LINE
  5
13C
330
1F
100
AcDbEntity
  8
Benennung
  6
Continuous2
 62
     4
420
    65535
370
    -3
100
AcDbLine
 10
28.72708333333334
 20
-11.59659748751608
 30
0.0
 11
28.57610294117648
 21
-11.51246287213146
 31
0.0
  0
LINE
  5
13D
330
1F
100
AcDbEntity
  8
Benennung
  6
Continuous2
 62
     4
420
    65535
370
    -3
100
AcDbLine
 10
28.57610294117648
 20
-11.51246287213146
 30
0.0
 11
28.41825980392157
 21
-11.46198210290069
 31
0.0
  0
LINE
  5
13E
330
1F
100
AcDbEntity
  8
Benennung
  6
Continuous2
 62
     4
420
    65535
370
    -3
100
AcDbLine
 10
28.41825980392157
 20
-11.46198210290069
 30
0.0
 11
28.25355392156863
 21
-11.44515517982377
 31
0.0
  0
LINE
  5
13F
330
1F
100
AcDbEntity
  8
Benennung
  6
Continuous2
 62
     4
420
    65535
370
    -3
100
AcDbLine
 10
28.25355392156863
 20
-11.44515517982377
 30
0.0
 11
28.09571078431373
 21
-11.46198210290069
 31
0.0
  0
LINE
  5
140
330
1F
100
AcDbEntity
  8
Benennung
  6
Continuous2
 62
     4
420
    65535
370
    -3
100
AcDbLine
 10
28.09571078431373
 20
-11.46198210290069
 30
0.0
 11
27.93786764705883
 21
-11.51246287213146
 31
0.0
  0
LINE
  5
141
330
1F
100
AcDbEntity
  8
Benennung
  6
Continuous2
 62
     4
420
    65535
370
    -3
100
AcDbLine
 10
27.93786764705883
 20
-11.51246287213146
 30
0.0
 11
27.78688725490197
 21
-11.59659748751608
 31
0.0
  0
LINE
  5
142
330
1F
100
AcDbEntity
  8
Benennung
  6
Continuous2
 62
     4
420
    65535
370
    -3
100
AcDbLine
 10
27.78688725490197
 20
-11.59659748751608
 30
0.0
 11
27.65649509803922
 21
-11.69755902597762
 31
0.0
  0
LINE
  5
143
330
1F
100
AcDbEntity
  8
Benennung
  6
Continuous2
 62
     4
420
    65535
370
    -3
100
AcDbLine
 10
27.65649509803922
 20
-11.69755902597762
 30
0.0
 11
27.53982843137256
 21
-11.832174410593
 31
0.0
  0
LINE
  5
144
330
1F
100
AcDbEntity
  8
Benennung
  6
Continuous2
 62
     4
420
    65535
370
    -3
100
AcDbLine
 10
27.53982843137256
 20
-11.832174410593
 30
0.0
 11
27.46433823529412
 21
-11.94996287213146
 31
0.0
  0
LINE
  5
145
330
1F
100
AcDbEntity
  8
Benennung
  6
Continuous2
 62
     4
420
    65535
370
    -3
100
AcDbLine
 10
27.46433823529412
 20
-11.94996287213146
 30
0.0
 11
27.46433823529412
 21
-10.082174410593
 31
0.0
  0
LINE
  5
146
330
1F
100
AcDbEntity
  8
Benennung
  6
Continuous2
 62
     4
420
    65535
370
    -3
100
AcDbLine
 10
27.46433823529412
 20
-10.082174410593
 30
0.0
 11
29.19375
 21
-10.082174410593
 31
0.0
  0
LINE
  5
147
330
1F
100
AcDbEntity
  8
Benennung
  6
Continuous2
 62
     4
420
    65535
370
    -3
100
AcDbLine
 10
29.54375000000001
 20
-10.082174410593
 30
0.0
 11
31.29375000000001
 21
-10.082174410593
 31
0.0
  0
LINE
  5
148
330
1F
100
AcDbEntity
  8
Benennung
  6
Continuous2
 62
     4
420
    65535
370
    -3
100
AcDbLine
 10
31.29375000000001
 20
-10.082174410593
 30
0.0
 11
29.54375000000001
 21
-13.582174410593
 31
0.0
  0
LINE
  5
149
330
1F
100
AcDbEntity
  8
Benennung
  6
Continuous2
 62
     4
420
    65535
370
    -3
100
AcDbLine
 10
32.67316176470589
 20
-10.11582825674685
 30
0.0
 11
32.52218137254903
 21
-10.082174410593
 31
0.0
  0
LINE
  5
14A
330
1F
100
AcDbEntity
  8
Benennung
  6
Continuous2
 62
     4
420
    65535
370
    -3
100
AcDbLine
 10
32.52218137254903
 20
-10.082174410593
 30
0.0
 11
32.36433823529413
 21
-10.11582825674685
 31
0.0
  0
LINE
  5
14B
330
1F
100
AcDbEntity
  8
Benennung
  6
Continuous2
 62
     4
420
    65535
370
    -3
100
AcDbLine
 10
32.36433823529413
 20
-10.11582825674685
 30
0.0
 11
32.2202205882353
 21
-10.18313594905454
 31
0.0
  0
LINE
  5
14C
330
1F
100
AcDbEntity
  8
Benennung
  6
Continuous2
 62
     4
420
    65535
370
    -3
100
AcDbLine
 10
32.2202205882353
 20
-10.18313594905454
 30
0.0
 11
32.08296568627452
 21
-10.31775133366992
 31
0.0
  0
LINE
  5
14D
330
1F
100
AcDbEntity
  8
Benennung
  6
Continuous2
 62
     4
420
    65535
370
    -3
100
AcDbLine
 10
32.08296568627452
 20
-10.31775133366992
 30
0.0
 11
31.95943627450981
 21
-10.48602056443915
 31
0.0
  0
LINE
  5
14E
330
1F
100
AcDbEntity
  8
Benennung
  6
Continuous2
 62
     4
420
    65535
370
    -3
100
AcDbLine
 10
31.95943627450981
 20
-10.48602056443915
 30
0.0
 11
31.84963235294118
 21
-10.70477056443916
 31
0.0
  0
LINE
  5
14F
330
1F
100
AcDbEntity
  8
Benennung
  6
Continuous2
 62
     4
420
    65535
370
    -3
100
AcDbLine
 10
31.84963235294118
 20
-10.70477056443916
 30
0.0
 11
31.76041666666667
 21
-10.957174410593
 31
0.0
  0
LINE
  5
150
330
1F
100
AcDbEntity
  8
Benennung
  6
Continuous2
 62
     4
420
    65535
370
    -3
100
AcDbLine
 10
31.76041666666667
 20
-10.957174410593
 30
0.0
 11
31.69865196078432
 21
-11.22640517982377
 31
0.0
  0
LINE
  5
151
330
1F
100
AcDbEntity
  8
Benennung
  6
Continuous2
 62
     4
420
    65535
370
    -3
100
AcDbLine
 10
31.69865196078432
 20
-11.22640517982377
 30
0.0
 11
31.65747549019608
 21
-11.52928979520839
 31
0.0
  0
LINE
  5
152
330
1F
100
AcDbEntity
  8
Benennung
  6
Continuous2
 62
     4
420
    65535
370
    -3
100
AcDbLine
 10
31.65747549019608
 20
-11.52928979520839
 30
0.0
 11
31.64375
 21
-11.832174410593
 31
0.0
  0
LINE
  5
153
330
1F
100
AcDbEntity
  8
Benennung
  6
Continuous2
 62
     4
420
    65535
370
    -3
100
AcDbLine
 10
31.64375
 20
-11.832174410593
 30
0.0
 11
31.65747549019608
 21
-12.13505902597762
 31
0.0
  0
LINE
  5
154
330
1F
100
AcDbEntity
  8
Benennung
  6
Continuous2
 62
     4
420
    65535
370
    -3
100
AcDbLine
 10
31.65747549019608
 20
-12.13505902597762
 30
0.0
 11
31.69865196078432
 21
-12.43794364136223
 31
0.0
  0
LINE
  5
155
330
1F
100
AcDbEntity
  8
Benennung
  6
Continuous2
 62
     4
420
    65535
370
    -3
100
AcDbLine
 10
31.69865196078432
 20
-12.43794364136223
 30
0.0
 11
31.76041666666667
 21
-12.707174410593
 31
0.0
  0
LINE
  5
156
330
1F
100
AcDbEntity
  8
Benennung
  6
Continuous2
 62
     4
420
    65535
370
    -3
100
AcDbLine
 10
31.76041666666667
 20
-12.707174410593
 30
0.0
 11
31.84963235294118
 21
-12.95957825674685
 31
0.0
  0
LINE
  5
157
330
1F
100
AcDbEntity
  8
Benennung
  6
Continuous2
 62
     4
420
    65535
370
    -3
100
AcDbLine
 10
31.84963235294118
 20
-12.95957825674685
 30
0.0
 11
31.95943627450981
 21
-13.17832825674685
 31
0.0
  0
LINE
  5
158
330
1F
100
AcDbEntity
  8
Benennung
  6
Continuous2
 62
     4
420
    65535
370
    -3
100
AcDbLine
 10
31.95943627450981
 20
-13.17832825674685
 30
0.0
 11
32.08296568627452
 21
-13.34659748751608
 31
0.0
  0
LINE
  5
159
330
1F
100
AcDbEntity
  8
Benennung
  6
Continuous2
 62
     4
420
    65535
370
    -3
100
AcDbLine
 10
32.08296568627452
 20
-13.34659748751608
 30
0.0
 11
32.2202205882353
 21
-13.48121287213146
 31
0.0
  0
LINE
  5
15A
330
1F
100
AcDbEntity
  8
Benennung
  6
Continuous2
 62
     4
420
    65535
370
    -3
100
AcDbLine
 10
32.2202205882353
 20
-13.48121287213146
 30
0.0
 11
32.36433823529413
 21
-13.54852056443916
 31
0.0
  0
LINE
  5
15B
330
1F
100
AcDbEntity
  8
Benennung
  6
Continuous2
 62
     4
420
    65535
370
    -3
100
AcDbLine
 10
32.36433823529413
 20
-13.54852056443916
 30
0.0
 11
32.52218137254903
 21
-13.582174410593
 31
0.0
  0
LINE
  5
15C
330
1F
100
AcDbEntity
  8
Benennung
  6
Continuous2
 62
     4
420
    65535
370
    -3
100
AcDbLine
 10
32.52218137254903
 20
-13.582174410593
 30
0.0
 11
32.67316176470589
 21
-13.54852056443916
 31
0.0
  0
LINE
  5
15D
330
1F
100
AcDbEntity
  8
Benennung
  6
Continuous2
 62
     4
420
    65535
370
    -3
100
AcDbLine
 10
32.67316176470589
 20
-13.54852056443916
 30
0.0
 11
32.81727941176471
 21
-13.48121287213146
 31
0.0
  0
LINE
  5
15E
330
1F
100
AcDbEntity
  8
Benennung
  6
Continuous2
 62
     4
420
    65535
370
    -3
100
AcDbLine
 10
32.81727941176471
 20
-13.48121287213146
 30
0.0
 11
32.9545343137255
 21
-13.34659748751608
 31
0.0
  0
LINE
  5
15F
330
1F
100
AcDbEntity
  8
Benennung
  6
Continuous2
 62
     4
420
    65535
370
    -3
100
AcDbLine
 10
32.9545343137255
 20
-13.34659748751608
 30
0.0
 11
33.0780637254902
 21
-13.17832825674685
 31
0.0
  0
LINE
  5
160
330
1F
100
AcDbEntity
  8
Benennung
  6
Continuous2
 62
     4
420
    65535
370
    -3
100
AcDbLine
 10
33.0780637254902
 20
-13.17832825674685
 30
0.0
 11
33.18786764705883
 21
-12.95957825674685
 31
0.0
  0
LINE
  5
161
330
1F
100
AcDbEntity
  8
Benennung
  6
Continuous2
 62
     4
420
    65535
370
    -3
100
AcDbLine
 10
33.18786764705883
 20
-12.95957825674685
 30
0.0
 11
33.27708333333334
 21
-12.707174410593
 31
0.0
  0
LINE
  5
162
330
1F
100
AcDbEntity
  8
Benennung
  6
Continuous2
 62
     4
420
    65535
370
    -3
100
AcDbLine
 10
33.27708333333334
 20
-12.707174410593
 30
0.0
 11
33.33884803921569
 21
-12.43794364136223
 31
0.0
  0
LINE
  5
163
330
1F
100
AcDbEntity
  8
Benennung
  6
Continuous2
 62
     4
420
    65535
370
    -3
100
AcDbLine
 10
33.33884803921569
 20
-12.43794364136223
 30
0.0
 11
33.38002450980393
 21
-12.13505902597762
 31
0.0
  0
LINE
  5
164
330
1F
100
AcDbEntity
  8
Benennung
  6
Continuous2
 62
     4
420
    65535
370
    -3
100
AcDbLine
 10
33.38002450980393
 20
-12.13505902597762
 30
0.0
 11
33.39375
 21
-11.832174410593
 31
0.0
  0
LINE
  5
165
330
1F
100
AcDbEntity
  8
Benennung
  6
Continuous2
 62
     4
420
    65535
370
    -3
100
AcDbLine
 10
33.39375
 20
-11.832174410593
 30
0.0
 11
33.38002450980393
 21
-11.52928979520839
 31
0.0
  0
LINE
  5
166
330
1F
100
AcDbEntity
  8
Benennung
  6
Continuous2
 62
     4
420
    65535
370
    -3
100
AcDbLine
 10
33.38002450980393
 20
-11.52928979520839
 30
0.0
 11
33.33884803921569
 21
-11.22640517982377
 31
0.0
  0
LINE
  5
167
330
1F
100
AcDbEntity
  8
Benennung
  6
Continuous2
 62
     4
420
    65535
370
    -3
100
AcDbLine
 10
33.33884803921569
 20
-11.22640517982377
 30
0.0
 11
33.27708333333334
 21
-10.957174410593
 31
0.0
  0
LINE
  5
168
330
1F
100
AcDbEntity
  8
Benennung
  6
Continuous2
 62
     4
420
    65535
370
    -3
100
AcDbLine
 10
33.27708333333334
 20
-10.957174410593
 30
0.0
 11
33.18786764705883
 21
-10.70477056443916
 31
0.0
  0
LINE
  5
169
330
1F
100
AcDbEntity
  8
Benennung
  6
Continuous2
 62
     4
420
    65535
370
    -3
100
AcDbLine
 10
33.18786764705883
 20
-10.70477056443916
 30
0.0
 11
33.0780637254902
 21
-10.48602056443915
 31
0.0
  0
LINE
  5
16A
330
1F
100
AcDbEntity
  8
Benennung
  6
Continuous2
 62
     4
420
    65535
370
    -3
100
AcDbLine
 10
33.0780637254902
 20
-10.48602056443915
 30
0.0
 11
32.9545343137255
 21
-10.31775133366992
 31
0.0
  0
LINE
  5
16B
330
1F
100
AcDbEntity
  8
Benennung
  6
Continuous2
 62
     4
420
    65535
370
    -3
100
AcDbLine
 10
32.9545343137255
 20
-10.31775133366992
 30
0.0
 11
32.81727941176471
 21
-10.18313594905454
 31
0.0
  0
LINE
  5
16C
330
1F
100
AcDbEntity
  8
Benennung
  6
Continuous2
 62
     4
420
    65535
370
    -3
100
AcDbLine
 10
32.81727941176471
 20
-10.18313594905454
 30
0.0
 11
32.67316176470589
 21
-10.11582825674685
 31
0.0
  0
LINE
  5
16D
330
1F
100
AcDbEntity
  8
Benennung
  6
Continuous2
 62
     4
420
    65535
370
    -3
100
AcDbLine
 10
33.74375000000001
 20
-10.082174410593
 30
0.0
 11
35.49375000000001
 21
-10.082174410593
 31
0.0
  0
LINE
  5
16E
330
1F
100
AcDbEntity
  8
Benennung
  6
Continuous2
 62
     4
420
    65535
370
    -3
100
AcDbLine
 10
35.49375000000001
 20
-10.082174410593
 30
0.0
 11
33.74375000000001
 21
-13.582174410593
 31
0.0
  0
LINE
  5
16F
330
1F
100
AcDbEntity
  8
Benennung
  6
Continuous2
 62
     4
420
    65535
370
    -3
100
AcDbLine
 10
35.84375000000001
 20
-13.04371287213146
 30
0.0
 11
35.93982843137255
 21
-13.19515517982377
 31
0.0
  0
LINE
  5
170
330
1F
100
AcDbEntity
  8
Benennung
  6
Continuous2
 62
     4
420
    65535
370
    -3
100
AcDbLine
 10
35.93982843137255
 20
-13.19515517982377
 30
0.0
 11
36.05649509803922
 21
-13.32977056443916
 31
0.0
  0
LINE
  5
171
330
1F
100
AcDbEntity
  8
Benennung
  6
Continuous2
 62
     4
420
    65535
370
    -3
100
AcDbLine
 10
36.05649509803922
 20
-13.32977056443916
 30
0.0
 11
36.18688725490197
 21
-13.43073210290069
 31
0.0
  0
LINE
  5
172
330
1F
100
AcDbEntity
  8
Benennung
  6
Continuous2
 62
     4
420
    65535
370
    -3
100
AcDbLine
 10
36.18688725490197
 20
-13.43073210290069
 30
0.0
 11
36.33786764705883
 21
-13.51486671828531
 31
0.0
  0
LINE
  5
173
330
1F
100
AcDbEntity
  8
Benennung
  6
Continuous2
 62
     4
420
    65535
370
    -3
100
AcDbLine
 10
36.33786764705883
 20
-13.51486671828531
 30
0.0
 11
36.49571078431373
 21
-13.56534748751608
 31
0.0
  0
LINE
  5
174
330
1F
100
AcDbEntity
  8
Benennung
  6
Continuous2
 62
     4
420
    65535
370
    -3
100
AcDbLine
 10
36.49571078431373
 20
-13.56534748751608
 30
0.0
 11
36.65355392156864
 21
-13.582174410593
 31
0.0
  0
LINE
  5
175
330
1F
100
AcDbEntity
  8
Benennung
  6
Continuous2
 62
     4
420
    65535
370
    -3
100
AcDbLine
 10
36.65355392156864
 20
-13.582174410593
 30
0.0
 11
36.81825980392158
 21
-13.56534748751608
 31
0.0
  0
LINE
  5
176
330
1F
100
AcDbEntity
  8
Benennung
  6
Continuous2
 62
     4
420
    65535
370
    -3
100
AcDbLine
 10
36.81825980392158
 20
-13.56534748751608
 30
0.0
 11
36.97610294117648
 21
-13.51486671828531
 31
0.0
  0
LINE
  5
177
330
1F
100
AcDbEntity
  8
Benennung
  6
Continuous2
 62
     4
420
    65535
370
    -3
100
AcDbLine
 10
36.97610294117648
 20
-13.51486671828531
 30
0.0
 11
37.12708333333334
 21
-13.43073210290069
 31
0.0
  0
LINE
  5
178
330
1F
100
AcDbEntity
  8
Benennung
  6
Continuous2
 62
     4
420
    65535
370
    -3
100
AcDbLine
 10
37.12708333333334
 20
-13.43073210290069
 30
0.0
 11
37.25747549019609
 21
-13.32977056443916
 31
0.0
  0
LINE
  5
179
330
1F
100
AcDbEntity
  8
Benennung
  6
Continuous2
 62
     4
420
    65535
370
    -3
100
AcDbLine
 10
37.25747549019609
 20
-13.32977056443916
 30
0.0
 11
37.37414215686275
 21
-13.19515517982377
 31
0.0
  0
LINE
  5
17A
330
1F
100
AcDbEntity
  8
Benennung
  6
Continuous2
 62
     4
420
    65535
370
    -3
100
AcDbLine
 10
37.37414215686275
 20
-13.19515517982377
 30
0.0
 11
37.4702205882353
 21
-13.04371287213146
 31
0.0
  0
LINE
  5
17B
330
1F
100
AcDbEntity
  8
Benennung
  6
Continuous2
 62
     4
420
    65535
370
    -3
100
AcDbLine
 10
37.4702205882353
 20
-13.04371287213146
 30
0.0
 11
37.53884803921569
 21
-12.87544364136223
 31
0.0
  0
LINE
  5
17C
330
1F
100
AcDbEntity
  8
Benennung
  6
Continuous2
 62
     4
420
    65535
370
    -3
100
AcDbLine
 10
37.53884803921569
 20
-12.87544364136223
 30
0.0
 11
37.58002450980393
 21
-12.707174410593
 31
0.0
  0
LINE
  5
17D
330
1F
100
AcDbEntity
  8
Benennung
  6
Continuous2
 62
     4
420
    65535
370
    -3
100
AcDbLine
 10
37.58002450980393
 20
-12.707174410593
 30
0.0
 11
37.59375000000001
 21
-12.50525133366992
 31
0.0
  0
LINE
  5
17E
330
1F
100
AcDbEntity
  8
Benennung
  6
Continuous2
 62
     4
420
    65535
370
    -3
100
AcDbLine
 10
37.59375000000001
 20
-12.50525133366992
 30
0.0
 11
37.58002450980393
 21
-12.32015517982377
 31
0.0
  0
LINE
  5
17F
330
1F
100
AcDbEntity
  8
Benennung
  6
Continuous2
 62
     4
420
    65535
370
    -3
100
AcDbLine
 10
37.58002450980393
 20
-12.32015517982377
 30
0.0
 11
37.53884803921569
 21
-12.15188594905454
 31
0.0
  0
LINE
  5
180
330
1F
100
AcDbEntity
  8
Benennung
  6
Continuous2
 62
     4
420
    65535
370
    -3
100
AcDbLine
 10
37.53884803921569
 20
-12.15188594905454
 30
0.0
 11
37.4702205882353
 21
-11.98361671828531
 31
0.0
  0
LINE
  5
181
330
1F
100
AcDbEntity
  8
Benennung
  6
Continuous2
 62
     4
420
    65535
370
    -3
100
AcDbLine
 10
37.4702205882353
 20
-11.98361671828531
 30
0.0
 11
37.37414215686275
 21
-11.832174410593
 31
0.0
  0
LINE
  5
182
330
1F
100
AcDbEntity
  8
Benennung
  6
Continuous2
 62
     4
420
    65535
370
    -3
100
AcDbLine
 10
37.37414215686275
 20
-11.832174410593
 30
0.0
 11
37.25747549019609
 21
-11.69755902597762
 31
0.0
  0
LINE
  5
183
330
1F
100
AcDbEntity
  8
Benennung
  6
Continuous2
 62
     4
420
    65535
370
    -3
100
AcDbLine
 10
37.25747549019609
 20
-11.69755902597762
 30
0.0
 11
37.12708333333334
 21
-11.59659748751608
 31
0.0
  0
LINE
  5
184
330
1F
100
AcDbEntity
  8
Benennung
  6
Continuous2
 62
     4
420
    65535
370
    -3
100
AcDbLine
 10
37.12708333333334
 20
-11.59659748751608
 30
0.0
 11
36.97610294117648
 21
-11.51246287213146
 31
0.0
  0
LINE
  5
185
330
1F
100
AcDbEntity
  8
Benennung
  6
Continuous2
 62
     4
420
    65535
370
    -3
100
AcDbLine
 10
36.97610294117648
 20
-11.51246287213146
 30
0.0
 11
36.81825980392158
 21
-11.46198210290069
 31
0.0
  0
LINE
  5
186
330
1F
100
AcDbEntity
  8
Benennung
  6
Continuous2
 62
     4
420
    65535
370
    -3
100
AcDbLine
 10
36.81825980392158
 20
-11.46198210290069
 30
0.0
 11
36.65355392156864
 21
-11.44515517982377
 31
0.0
  0
LINE
  5
187
330
1F
100
AcDbEntity
  8
Benennung
  6
Continuous2
 62
     4
420
    65535
370
    -3
100
AcDbLine
 10
36.65355392156864
 20
-11.44515517982377
 30
0.0
 11
36.49571078431373
 21
-11.46198210290069
 31
0.0
  0
LINE
  5
188
330
1F
100
AcDbEntity
  8
Benennung
  6
Continuous2
 62
     4
420
    65535
370
    -3
100
AcDbLine
 10
36.49571078431373
 20
-11.46198210290069
 30
0.0
 11
36.33786764705883
 21
-11.51246287213146
 31
0.0
  0
LINE
  5
189
330
1F
100
AcDbEntity
  8
Benennung
  6
Continuous2
 62
     4
420
    65535
370
    -3
100
AcDbLine
 10
36.33786764705883
 20
-11.51246287213146
 30
0.0
 11
36.18688725490197
 21
-11.59659748751608
 31
0.0
  0
LINE
  5
18A
330
1F
100
AcDbEntity
  8
Benennung
  6
Continuous2
 62
     4
420
    65535
370
    -3
100
AcDbLine
 10
36.18688725490197
 20
-11.59659748751608
 30
0.0
 11
36.05649509803922
 21
-11.69755902597762
 31
0.0
  0
LINE
  5
18B
330
1F
100
AcDbEntity
  8
Benennung
  6
Continuous2
 62
     4
420
    65535
370
    -3
100
AcDbLine
 10
36.05649509803922
 20
-11.69755902597762
 30
0.0
 11
35.93982843137255
 21
-11.832174410593
 31
0.0
  0
LINE
  5
18C
330
1F
100
AcDbEntity
  8
Benennung
  6
Continuous2
 62
     4
420
    65535
370
    -3
100
AcDbLine
 10
35.93982843137255
 20
-11.832174410593
 30
0.0
 11
35.86433823529412
 21
-11.94996287213146
 31
0.0
  0
LINE
  5
18D
330
1F
100
AcDbEntity
  8
Benennung
  6
Continuous2
 62
     4
420
    65535
370
    -3
100
AcDbLine
 10
35.86433823529412
 20
-11.94996287213146
 30
0.0
 11
35.86433823529412
 21
-10.082174410593
 31
0.0
  0
LINE
  5
18E
330
1F
100
AcDbEntity
  8
Benennung
  6
Continuous2
 62
     4
420
    65535
370
    -3
100
AcDbLine
 10
35.86433823529412
 20
-10.082174410593
 30
0.0
 11
37.59375000000001
 21
-10.082174410593
 31
0.0
  0
LINE
  5
18F
330
1F
100
AcDbEntity
  8
Benennung
  6
Continuous2
 62
     4
420
    65535
370
    -3
100
AcDbLine
 10
38.97316176470589
 20
-10.11582825674685
 30
0.0
 11
38.82218137254903
 21
-10.082174410593
 31
0.0
  0
LINE
  5
190
330
1F
100
AcDbEntity
  8
Benennung
  6
Continuous2
 62
     4
420
    65535
370
    -3
100
AcDbLine
 10
38.82218137254903
 20
-10.082174410593
 30
0.0
 11
38.66433823529412
 21
-10.11582825674685
 31
0.0
  0
LINE
  5
191
330
1F
100
AcDbEntity
  8
Benennung
  6
Continuous2
 62
     4
420
    65535
370
    -3
100
AcDbLine
 10
38.66433823529412
 20
-10.11582825674685
 30
0.0
 11
38.5202205882353
 21
-10.18313594905454
 31
0.0
  0
LINE
  5
192
330
1F
100
AcDbEntity
  8
Benennung
  6
Continuous2
 62
     4
420
    65535
370
    -3
100
AcDbLine
 10
38.5202205882353
 20
-10.18313594905454
 30
0.0
 11
38.38296568627452
 21
-10.31775133366992
 31
0.0
  0
LINE
  5
193
330
1F
100
AcDbEntity
  8
Benennung
  6
Continuous2
 62
     4
420
    65535
370
    -3
100
AcDbLine
 10
38.38296568627452
 20
-10.31775133366992
 30
0.0
 11
38.25943627450981
 21
-10.48602056443915
 31
0.0
  0
LINE
  5
194
330
1F
100
AcDbEntity
  8
Benennung
  6
Continuous2
 62
     4
420
    65535
370
    -3
100
AcDbLine
 10
38.25943627450981
 20
-10.48602056443915
 30
0.0
 11
38.14963235294118
 21
-10.70477056443916
 31
0.0
  0
LINE
  5
195
330
1F
100
AcDbEntity
  8
Benennung
  6
Continuous2
 62
     4
420
    65535
370
    -3
100
AcDbLine
 10
38.14963235294118
 20
-10.70477056443916
 30
0.0
 11
38.06041666666668
 21
-10.957174410593
 31
0.0
  0
LINE
  5
196
330
1F
100
AcDbEntity
  8
Benennung
  6
Continuous2
 62
     4
420
    65535
370
    -3
100
AcDbLine
 10
38.06041666666668
 20
-10.957174410593
 30
0.0
 11
37.99865196078432
 21
-11.22640517982377
 31
0.0
  0
LINE
  5
197
330
1F
100
AcDbEntity
  8
Benennung
  6
Continuous2
 62
     4
420
    65535
370
    -3
100
AcDbLine
 10
37.99865196078432
 20
-11.22640517982377
 30
0.0
 11
37.95747549019608
 21
-11.52928979520839
 31
0.0
  0
LINE
  5
198
330
1F
100
AcDbEntity
  8
Benennung
  6
Continuous2
 62
     4
420
    65535
370
    -3
100
AcDbLine
 10
37.95747549019608
 20
-11.52928979520839
 30
0.0
 11
37.94375000000001
 21
-11.832174410593
 31
0.0
  0
LINE
  5
199
330
1F
100
AcDbEntity
  8
Benennung
  6
Continuous2
 62
     4
420
    65535
370
    -3
100
AcDbLine
 10
37.94375000000001
 20
-11.832174410593
 30
0.0
 11
37.95747549019608
 21
-12.13505902597762
 31
0.0
  0
LINE
  5
19A
330
1F
100
AcDbEntity
  8
Benennung
  6
Continuous2
 62
     4
420
    65535
370
    -3
100
AcDbLine
 10
37.95747549019608
 20
-12.13505902597762
 30
0.0
 11
37.99865196078432
 21
-12.43794364136223
 31
0.0
  0
LINE
  5
19B
330
1F
100
AcDbEntity
  8
Benennung
  6
Continuous2
 62
     4
420
    65535
370
    -3
100
AcDbLine
 10
37.99865196078432
 20
-12.43794364136223
 30
0.0
 11
38.06041666666668
 21
-12.707174410593
 31
0.0
  0
LINE
  5
19C
330
1F
100
AcDbEntity
  8
Benennung
  6
Continuous2
 62
     4
420
    65535
370
    -3
100
AcDbLine
 10
38.06041666666668
 20
-12.707174410593
 30
0.0
 11
38.14963235294118
 21
-12.95957825674685
 31
0.0
  0
LINE
  5
19D
330
1F
100
AcDbEntity
  8
Benennung
  6
Continuous2
 62
     4
420
    65535
370
    -3
100
AcDbLine
 10
38.14963235294118
 20
-12.95957825674685
 30
0.0
 11
38.25943627450981
 21
-13.17832825674685
 31
0.0
  0
LINE
  5
19E
330
1F
100
AcDbEntity
  8
Benennung
  6
Continuous2
 62
     4
420
    65535
370
    -3
100
AcDbLine
 10
38.25943627450981
 20
-13.17832825674685
 30
0.0
 11
38.38296568627452
 21
-13.34659748751608
 31
0.0
  0
LINE
  5
19F
330
1F
100
AcDbEntity
  8
Benennung
  6
Continuous2
 62
     4
420
    65535
370
    -3
100
AcDbLine
 10
38.38296568627452
 20
-13.34659748751608
 30
0.0
 11
38.5202205882353
 21
-13.48121287213146
 31
0.0
  0
LINE
  5
1A0
330
1F
100
AcDbEntity
  8
Benennung
  6
Continuous2
 62
     4
420
    65535
370
    -3
100
AcDbLine
 10
38.5202205882353
 20
-13.48121287213146
 30
0.0
 11
38.66433823529412
 21
-13.54852056443916
 31
0.0
  0
LINE
  5
1A1
330
1F
100
AcDbEntity
  8
Benennung
  6
Continuous2
 62
     4
420
    65535
370
    -3
100
AcDbLine
 10
38.66433823529412
 20
-13.54852056443916
 30
0.0
 11
38.82218137254903
 21
-13.582174410593
 31
0.0
  0
LINE
  5
1A2
330
1F
100
AcDbEntity
  8
Benennung
  6
Continuous2
 62
     4
420
    65535
370
    -3
100
AcDbLine
 10
38.82218137254903
 20
-13.582174410593
 30
0.0
 11
38.97316176470589
 21
-13.54852056443916
 31
0.0
  0
LINE
  5
1A3
330
1F
100
AcDbEntity
  8
Benennung
  6
Continuous2
 62
     4
420
    65535
370
    -3
100
AcDbLine
 10
38.97316176470589
 20
-13.54852056443916
 30
0.0
 11
39.11727941176471
 21
-13.48121287213146
 31
0.0
  0
LINE
  5
1A4
330
1F
100
AcDbEntity
  8
Benennung
  6
Continuous2
 62
     4
420
    65535
370
    -3
100
AcDbLine
 10
39.11727941176471
 20
-13.48121287213146
 30
0.0
 11
39.25453431372549
 21
-13.34659748751608
 31
0.0
  0
LINE
  5
1A5
330
1F
100
AcDbEntity
  8
Benennung
  6
Continuous2
 62
     4
420
    65535
370
    -3
100
AcDbLine
 10
39.25453431372549
 20
-13.34659748751608
 30
0.0
 11
39.3780637254902
 21
-13.17832825674685
 31
0.0
  0
LINE
  5
1A6
330
1F
100
AcDbEntity
  8
Benennung
  6
Continuous2
 62
     4
420
    65535
370
    -3
100
AcDbLine
 10
39.3780637254902
 20
-13.17832825674685
 30
0.0
 11
39.48786764705883
 21
-12.95957825674685
 31
0.0
  0
LINE
  5
1A7
330
1F
100
AcDbEntity
  8
Benennung
  6
Continuous2
 62
     4
420
    65535
370
    -3
100
AcDbLine
 10
39.48786764705883
 20
-12.95957825674685
 30
0.0
 11
39.57708333333334
 21
-12.707174410593
 31
0.0
  0
LINE
  5
1A8
330
1F
100
AcDbEntity
  8
Benennung
  6
Continuous2
 62
     4
420
    65535
370
    -3
100
AcDbLine
 10
39.57708333333334
 20
-12.707174410593
 30
0.0
 11
39.63884803921569
 21
-12.43794364136223
 31
0.0
  0
LINE
  5
1A9
330
1F
100
AcDbEntity
  8
Benennung
  6
Continuous2
 62
     4
420
    65535
370
    -3
100
AcDbLine
 10
39.63884803921569
 20
-12.43794364136223
 30
0.0
 11
39.68002450980393
 21
-12.13505902597762
 31
0.0
  0
LINE
  5
1AA
330
1F
100
AcDbEntity
  8
Benennung
  6
Continuous2
 62
     4
420
    65535
370
    -3
100
AcDbLine
 10
39.68002450980393
 20
-12.13505902597762
 30
0.0
 11
39.69375000000001
 21
-11.832174410593
 31
0.0
  0
LINE
  5
1AB
330
1F
100
AcDbEntity
  8
Benennung
  6
Continuous2
 62
     4
420
    65535
370
    -3
100
AcDbLine
 10
39.69375000000001
 20
-11.832174410593
 30
0.0
 11
39.68002450980393
 21
-11.52928979520839
 31
0.0
  0
LINE
  5
1AC
330
1F
100
AcDbEntity
  8
Benennung
  6
Continuous2
 62
     4
420
    65535
370
    -3
100
AcDbLine
 10
39.68002450980393
 20
-11.52928979520839
 30
0.0
 11
39.63884803921569
 21
-11.22640517982377
 31
0.0
  0
LINE
  5
1AD
330
1F
100
AcDbEntity
  8
Benennung
  6
Continuous2
 62
     4
420
    65535
370
    -3
100
AcDbLine
 10
39.63884803921569
 20
-11.22640517982377
 30
0.0
 11
39.57708333333334
 21
-10.957174410593
 31
0.0
  0
LINE
  5
1AE
330
1F
100
AcDbEntity
  8
Benennung
  6
Continuous2
 62
     4
420
    65535
370
    -3
100
AcDbLine
 10
39.57708333333334
 20
-10.957174410593
 30
0.0
 11
39.48786764705883
 21
-10.70477056443916
 31
0.0
  0
LINE
  5
1AF
330
1F
100
AcDbEntity
  8
Benennung
  6
Continuous2
 62
     4
420
    65535
370
    -3
100
AcDbLine
 10
39.48786764705883
 20
-10.70477056443916
 30
0.0
 11
39.3780637254902
 21
-10.48602056443915
 31
0.0
  0
LINE
  5
1B0
330
1F
100
AcDbEntity
  8
Benennung
  6
Continuous2
 62
     4
420
    65535
370
    -3
100
AcDbLine
 10
39.3780637254902
 20
-10.48602056443915
 30
0.0
 11
39.25453431372549
 21
-10.31775133366992
 31
0.0
  0
LINE
  5
1B1
330
1F
100
AcDbEntity
  8
Benennung
  6
Continuous2
 62
     4
420
    65535
370
    -3
100
AcDbLine
 10
39.25453431372549
 20
-10.31775133366992
 30
0.0
 11
39.11727941176471
 21
-10.18313594905454
 31
0.0
  0
LINE
  5
1B2
330
1F
100
AcDbEntity
  8
Benennung
  6
Continuous2
 62
     4
420
    65535
370
    -3
100
AcDbLine
 10
39.11727941176471
 20
-10.18313594905454
 30
0.0
 11
38.97316176470589
 21
-10.11582825674685
 31
0.0
  0
LINE
  5
1B3
330
1F
100
AcDbEntity
  8
Benennung
  6
Continuous2
 62
     4
420
    65535
370
    -3
100
AcDbLine
 10
41.07316176470589
 20
-10.11582825674685
 30
0.0
 11
40.92218137254903
 21
-10.082174410593
 31
0.0
  0
LINE
  5
1B4
330
1F
100
AcDbEntity
  8
Benennung
  6
Continuous2
 62
     4
420
    65535
370
    -3
100
AcDbLine
 10
40.92218137254903
 20
-10.082174410593
 30
0.0
 11
40.76433823529413
 21
-10.11582825674685
 31
0.0
  0
LINE
  5
1B5
330
1F
100
AcDbEntity
  8
Benennung
  6
Continuous2
 62
     4
420
    65535
370
    -3
100
AcDbLine
 10
40.76433823529413
 20
-10.11582825674685
 30
0.0
 11
40.6202205882353
 21
-10.18313594905454
 31
0.0
  0
LINE
  5
1B6
330
1F
100
AcDbEntity
  8
Benennung
  6
Continuous2
 62
     4
420
    65535
370
    -3
100
AcDbLine
 10
40.6202205882353
 20
-10.18313594905454
 30
0.0
 11
40.48296568627452
 21
-10.31775133366992
 31
0.0
  0
LINE
  5
1B7
330
1F
100
AcDbEntity
  8
Benennung
  6
Continuous2
 62
     4
420
    65535
370
    -3
100
AcDbLine
 10
40.48296568627452
 20
-10.31775133366992
 30
0.0
 11
40.35943627450981
 21
-10.48602056443915
 31
0.0
  0
LINE
  5
1B8
330
1F
100
AcDbEntity
  8
Benennung
  6
Continuous2
 62
     4
420
    65535
370
    -3
100
AcDbLine
 10
40.35943627450981
 20
-10.48602056443915
 30
0.0
 11
40.24963235294118
 21
-10.70477056443916
 31
0.0
  0
LINE
  5
1B9
330
1F
100
AcDbEntity
  8
Benennung
  6
Continuous2
 62
     4
420
    65535
370
    -3
100
AcDbLine
 10
40.24963235294118
 20
-10.70477056443916
 30
0.0
 11
40.16041666666667
 21
-10.957174410593
 31
0.0
  0
LINE
  5
1BA
330
1F
100
AcDbEntity
  8
Benennung
  6
Continuous2
 62
     4
420
    65535
370
    -3
100
AcDbLine
 10
40.16041666666667
 20
-10.957174410593
 30
0.0
 11
40.09865196078432
 21
-11.22640517982377
 31
0.0
  0
LINE
  5
1BB
330
1F
100
AcDbEntity
  8
Benennung
  6
Continuous2
 62
     4
420
    65535
370
    -3
100
AcDbLine
 10
40.09865196078432
 20
-11.22640517982377
 30
0.0
 11
40.05747549019608
 21
-11.52928979520839
 31
0.0
  0
LINE
  5
1BC
330
1F
100
AcDbEntity
  8
Benennung
  6
Continuous2
 62
     4
420
    65535
370
    -3
100
AcDbLine
 10
40.05747549019608
 20
-11.52928979520839
 30
0.0
 11
40.04375
 21
-11.832174410593
 31
0.0
  0
LINE
  5
1BD
330
1F
100
AcDbEntity
  8
Benennung
  6
Continuous2
 62
     4
420
    65535
370
    -3
100
AcDbLine
 10
40.04375
 20
-11.832174410593
 30
0.0
 11
40.05747549019608
 21
-12.13505902597762
 31
0.0
  0
LINE
  5
1BE
330
1F
100
AcDbEntity
  8
Benennung
  6
Continuous2
 62
     4
420
    65535
370
    -3
100
AcDbLine
 10
40.05747549019608
 20
-12.13505902597762
 30
0.0
 11
40.09865196078432
 21
-12.43794364136223
 31
0.0
  0
LINE
  5
1BF
330
1F
100
AcDbEntity
  8
Benennung
  6
Continuous2
 62
     4
420
    65535
370
    -3
100
AcDbLine
 10
40.09865196078432
 20
-12.43794364136223
 30
0.0
 11
40.16041666666667
 21
-12.707174410593
 31
0.0
  0
LINE
  5
1C0
330
1F
100
AcDbEntity
  8
Benennung
  6
Continuous2
 62
     4
420
    65535
370
    -3
100
AcDbLine
 10
40.16041666666667
 20
-12.707174410593
 30
0.0
 11
40.24963235294118
 21
-12.95957825674685
 31
0.0
  0
LINE
  5
1C1
330
1F
100
AcDbEntity
  8
Benennung
  6
Continuous2
 62
     4
420
    65535
370
    -3
100
AcDbLine
 10
40.24963235294118
 20
-12.95957825674685
 30
0.0
 11
40.35943627450981
 21
-13.17832825674685
 31
0.0
  0
LINE
  5
1C2
330
1F
100
AcDbEntity
  8
Benennung
  6
Continuous2
 62
     4
420
    65535
370
    -3
100
AcDbLine
 10
40.35943627450981
 20
-13.17832825674685
 30
0.0
 11
40.48296568627452
 21
-13.34659748751608
 31
0.0
  0
LINE
  5
1C3
330
1F
100
AcDbEntity
  8
Benennung
  6
Continuous2
 62
     4
420
    65535
370
    -3
100
AcDbLine
 10
40.48296568627452
 20
-13.34659748751608
 30
0.0
 11
40.6202205882353
 21
-13.48121287213146
 31
0.0
  0
LINE
  5
1C4
330
1F
100
AcDbEntity
  8
Benennung
  6
Continuous2
 62
     4
420
    65535
370
    -3
100
AcDbLine
 10
40.6202205882353
 20
-13.48121287213146
 30
0.0
 11
40.76433823529413
 21
-13.54852056443916
 31
0.0
  0
LINE
  5
1C5
330
1F
100
AcDbEntity
  8
Benennung
  6
Continuous2
 62
     4
420
    65535
370
    -3
100
AcDbLine
 10
40.76433823529413
 20
-13.54852056443916
 30
0.0
 11
40.92218137254903
 21
-13.582174410593
 31
0.0
  0
LINE
  5
1C6
330
1F
100
AcDbEntity
  8
Benennung
  6
Continuous2
 62
     4
420
    65535
370
    -3
100
AcDbLine
 10
40.92218137254903
 20
-13.582174410593
 30
0.0
 11
41.07316176470589
 21
-13.54852056443916
 31
0.0
  0
LINE
  5
1C7
330
1F
100
AcDbEntity
  8
Benennung
  6
Continuous2
 62
     4
420
    65535
370
    -3
100
AcDbLine
 10
41.07316176470589
 20
-13.54852056443916
 30
0.0
 11
41.21727941176471
 21
-13.48121287213146
 31
0.0
  0
LINE
  5
1C8
330
1F
100
AcDbEntity
  8
Benennung
  6
Continuous2
 62
     4
420
    65535
370
    -3
100
AcDbLine
 10
41.21727941176471
 20
-13.48121287213146
 30
0.0
 11
41.35453431372549
 21
-13.34659748751608
 31
0.0
  0
LINE
  5
1C9
330
1F
100
AcDbEntity
  8
Benennung
  6
Continuous2
 62
     4
420
    65535
370
    -3
100
AcDbLine
 10
41.35453431372549
 20
-13.34659748751608
 30
0.0
 11
41.4780637254902
 21
-13.17832825674685
 31
0.0
  0
LINE
  5
1CA
330
1F
100
AcDbEntity
  8
Benennung
  6
Continuous2
 62
     4
420
    65535
370
    -3
100
AcDbLine
 10
41.4780637254902
 20
-13.17832825674685
 30
0.0
 11
41.58786764705883
 21
-12.95957825674685
 31
0.0
  0
LINE
  5
1CB
330
1F
100
AcDbEntity
  8
Benennung
  6
Continuous2
 62
     4
420
    65535
370
    -3
100
AcDbLine
 10
41.58786764705883
 20
-12.95957825674685
 30
0.0
 11
41.67708333333334
 21
-12.707174410593
 31
0.0
  0
LINE
  5
1CC
330
1F
100
AcDbEntity
  8
Benennung
  6
Continuous2
 62
     4
420
    65535
370
    -3
100
AcDbLine
 10
41.67708333333334
 20
-12.707174410593
 30
0.0
 11
41.7388480392157
 21
-12.43794364136223
 31
0.0
  0
LINE
  5
1CD
330
1F
100
AcDbEntity
  8
Benennung
  6
Continuous2
 62
     4
420
    65535
370
    -3
100
AcDbLine
 10
41.7388480392157
 20
-12.43794364136223
 30
0.0
 11
41.78002450980393
 21
-12.13505902597762
 31
0.0
  0
LINE
  5
1CE
330
1F
100
AcDbEntity
  8
Benennung
  6
Continuous2
 62
     4
420
    65535
370
    -3
100
AcDbLine
 10
41.78002450980393
 20
-12.13505902597762
 30
0.0
 11
41.79375
 21
-11.832174410593
 31
0.0
  0
LINE
  5
1CF
330
1F
100
AcDbEntity
  8
Benennung
  6
Continuous2
 62
     4
420
    65535
370
    -3
100
AcDbLine
 10
41.79375
 20
-11.832174410593
 30
0.0
 11
41.78002450980393
 21
-11.52928979520839
 31
0.0
  0
LINE
  5
1D0
330
1F
100
AcDbEntity
  8
Benennung
  6
Continuous2
 62
     4
420
    65535
370
    -3
100
AcDbLine
 10
41.78002450980393
 20
-11.52928979520839
 30
0.0
 11
41.7388480392157
 21
-11.22640517982377
 31
0.0
  0
LINE
  5
1D1
330
1F
100
AcDbEntity
  8
Benennung
  6
Continuous2
 62
     4
420
    65535
370
    -3
100
AcDbLine
 10
41.7388480392157
 20
-11.22640517982377
 30
0.0
 11
41.67708333333334
 21
-10.957174410593
 31
0.0
  0
LINE
  5
1D2
330
1F
100
AcDbEntity
  8
Benennung
  6
Continuous2
 62
     4
420
    65535
370
    -3
100
AcDbLine
 10
41.67708333333334
 20
-10.957174410593
 30
0.0
 11
41.58786764705883
 21
-10.70477056443916
 31
0.0
  0
LINE
  5
1D3
330
1F
100
AcDbEntity
  8
Benennung
  6
Continuous2
 62
     4
420
    65535
370
    -3
100
AcDbLine
 10
41.58786764705883
 20
-10.70477056443916
 30
0.0
 11
41.4780637254902
 21
-10.48602056443915
 31
0.0
  0
LINE
  5
1D4
330
1F
100
AcDbEntity
  8
Benennung
  6
Continuous2
 62
     4
420
    65535
370
    -3
100
AcDbLine
 10
41.4780637254902
 20
-10.48602056443915
 30
0.0
 11
41.35453431372549
 21
-10.31775133366992
 31
0.0
  0
LINE
  5
1D5
330
1F
100
AcDbEntity
  8
Benennung
  6
Continuous2
 62
     4
420
    65535
370
    -3
100
AcDbLine
 10
41.35453431372549
 20
-10.31775133366992
 30
0.0
 11
41.21727941176471
 21
-10.18313594905454
 31
0.0
  0
LINE
  5
1D6
330
1F
100
AcDbEntity
  8
Benennung
  6
Continuous2
 62
     4
420
    65535
370
    -3
100
AcDbLine
 10
41.21727941176471
 20
-10.18313594905454
 30
0.0
 11
41.07316176470589
 21
-10.11582825674685
 31
0.0
  0
LINE
  5
1D7
330
1F
100
AcDbEntity
  8
Benennung
  6
Continuous2
 62
     4
420
    65535
370
    -3
100
AcDbLine
 10
42.14375
 20
-12.50525133366992
 30
0.0
 11
42.15747549019608
 21
-12.707174410593
 31
0.0
  0
LINE
  5
1D8
330
1F
100
AcDbEntity
  8
Benennung
  6
Continuous2
 62
     4
420
    65535
370
    -3
100
AcDbLine
 10
42.15747549019608
 20
-12.707174410593
 30
0.0
 11
42.19865196078432
 21
-12.87544364136223
 31
0.0
  0
LINE
  5
1D9
330
1F
100
AcDbEntity
  8
Benennung
  6
Continuous2
 62
     4
420
    65535
370
    -3
100
AcDbLine
 10
42.19865196078432
 20
-12.87544364136223
 30
0.0
 11
42.26041666666667
 21
-13.04371287213146
 31
0.0
  0
LINE
  5
1DA
330
1F
100
AcDbEntity
  8
Benennung
  6
Continuous2
 62
     4
420
    65535
370
    -3
100
AcDbLine
 10
42.26041666666667
 20
-13.04371287213146
 30
0.0
 11
42.34963235294119
 21
-13.19515517982377
 31
0.0
  0
LINE
  5
1DB
330
1F
100
AcDbEntity
  8
Benennung
  6
Continuous2
 62
     4
420
    65535
370
    -3
100
AcDbLine
 10
42.34963235294119
 20
-13.19515517982377
 30
0.0
 11
42.45943627450981
 21
-13.32977056443916
 31
0.0
  0
LINE
  5
1DC
330
1F
100
AcDbEntity
  8
Benennung
  6
Continuous2
 62
     4
420
    65535
370
    -3
100
AcDbLine
 10
42.45943627450981
 20
-13.32977056443916
 30
0.0
 11
42.58296568627452
 21
-13.43073210290069
 31
0.0
  0
LINE
  5
1DD
330
1F
100
AcDbEntity
  8
Benennung
  6
Continuous2
 62
     4
420
    65535
370
    -3
100
AcDbLine
 10
42.58296568627452
 20
-13.43073210290069
 30
0.0
 11
42.7202205882353
 21
-13.51486671828531
 31
0.0
  0
LINE
  5
1DE
330
1F
100
AcDbEntity
  8
Benennung
  6
Continuous2
 62
     4
420
    65535
370
    -3
100
AcDbLine
 10
42.7202205882353
 20
-13.51486671828531
 30
0.0
 11
42.86433823529413
 21
-13.56534748751608
 31
0.0
  0
LINE
  5
1DF
330
1F
100
AcDbEntity
  8
Benennung
  6
Continuous2
 62
     4
420
    65535
370
    -3
100
AcDbLine
 10
42.86433823529413
 20
-13.56534748751608
 30
0.0
 11
43.02218137254903
 21
-13.582174410593
 31
0.0
  0
LINE
  5
1E0
330
1F
100
AcDbEntity
  8
Benennung
  6
Continuous2
 62
     4
420
    65535
370
    -3
100
AcDbLine
 10
43.02218137254903
 20
-13.582174410593
 30
0.0
 11
43.17316176470589
 21
-13.56534748751608
 31
0.0
  0
LINE
  5
1E1
330
1F
100
AcDbEntity
  8
Benennung
  6
Continuous2
 62
     4
420
    65535
370
    -3
100
AcDbLine
 10
43.17316176470589
 20
-13.56534748751608
 30
0.0
 11
43.31727941176472
 21
-13.51486671828531
 31
0.0
  0
LINE
  5
1E2
330
1F
100
AcDbEntity
  8
Benennung
  6
Continuous2
 62
     4
420
    65535
370
    -3
100
AcDbLine
 10
43.31727941176472
 20
-13.51486671828531
 30
0.0
 11
43.4545343137255
 21
-13.43073210290069
 31
0.0
  0
LINE
  5
1E3
330
1F
100
AcDbEntity
  8
Benennung
  6
Continuous2
 62
     4
420
    65535
370
    -3
100
AcDbLine
 10
43.4545343137255
 20
-13.43073210290069
 30
0.0
 11
43.5780637254902
 21
-13.32977056443916
 31
0.0
  0
LINE
  5
1E4
330
1F
100
AcDbEntity
  8
Benennung
  6
Continuous2
 62
     4
420
    65535
370
    -3
100
AcDbLine
 10
43.5780637254902
 20
-13.32977056443916
 30
0.0
 11
43.68786764705883
 21
-13.19515517982377
 31
0.0
  0
LINE
  5
1E5
330
1F
100
AcDbEntity
  8
Benennung
  6
Continuous2
 62
     4
420
    65535
370
    -3
100
AcDbLine
 10
43.68786764705883
 20
-13.19515517982377
 30
0.0
 11
43.77708333333334
 21
-13.04371287213146
 31
0.0
  0
LINE
  5
1E6
330
1F
100
AcDbEntity
  8
Benennung
  6
Continuous2
 62
     4
420
    65535
370
    -3
100
AcDbLine
 10
43.77708333333334
 20
-13.04371287213146
 30
0.0
 11
43.83884803921569
 21
-12.87544364136223
 31
0.0
  0
LINE
  5
1E7
330
1F
100
AcDbEntity
  8
Benennung
  6
Continuous2
 62
     4
420
    65535
370
    -3
100
AcDbLine
 10
43.83884803921569
 20
-12.87544364136223
 30
0.0
 11
43.88002450980393
 21
-12.707174410593
 31
0.0
  0
LINE
  5
1E8
330
1F
100
AcDbEntity
  8
Benennung
  6
Continuous2
 62
     4
420
    65535
370
    -3
100
AcDbLine
 10
43.88002450980393
 20
-12.707174410593
 30
0.0
 11
43.89375
 21
-12.50525133366992
 31
0.0
  0
LINE
  5
1E9
330
1F
100
AcDbEntity
  8
Benennung
  6
Continuous2
 62
     4
420
    65535
370
    -3
100
AcDbLine
 10
43.89375
 20
-12.50525133366992
 30
0.0
 11
43.88002450980393
 21
-12.32015517982377
 31
0.0
  0
LINE
  5
1EA
330
1F
100
AcDbEntity
  8
Benennung
  6
Continuous2
 62
     4
420
    65535
370
    -3
100
AcDbLine
 10
43.88002450980393
 20
-12.32015517982377
 30
0.0
 11
43.83884803921569
 21
-12.15188594905454
 31
0.0
  0
LINE
  5
1EB
330
1F
100
AcDbEntity
  8
Benennung
  6
Continuous2
 62
     4
420
    65535
370
    -3
100
AcDbLine
 10
43.83884803921569
 20
-12.15188594905454
 30
0.0
 11
43.77708333333334
 21
-11.98361671828531
 31
0.0
  0
LINE
  5
1EC
330
1F
100
AcDbEntity
  8
Benennung
  6
Continuous2
 62
     4
420
    65535
370
    -3
100
AcDbLine
 10
43.77708333333334
 20
-11.98361671828531
 30
0.0
 11
43.68786764705883
 21
-11.832174410593
 31
0.0
  0
LINE
  5
1ED
330
1F
100
AcDbEntity
  8
Benennung
  6
Continuous2
 62
     4
420
    65535
370
    -3
100
AcDbLine
 10
43.68786764705883
 20
-11.832174410593
 30
0.0
 11
43.5780637254902
 21
-11.69755902597762
 31
0.0
  0
LINE
  5
1EE
330
1F
100
AcDbEntity
  8
Benennung
  6
Continuous2
 62
     4
420
    65535
370
    -3
100
AcDbLine
 10
43.5780637254902
 20
-11.69755902597762
 30
0.0
 11
43.4545343137255
 21
-11.59659748751608
 31
0.0
  0
LINE
  5
1EF
330
1F
100
AcDbEntity
  8
Benennung
  6
Continuous2
 62
     4
420
    65535
370
    -3
100
AcDbLine
 10
43.4545343137255
 20
-11.59659748751608
 30
0.0
 11
43.31727941176472
 21
-11.51246287213146
 31
0.0
  0
LINE
  5
1F0
330
1F
100
AcDbEntity
  8
Benennung
  6
Continuous2
 62
     4
420
    65535
370
    -3
100
AcDbLine
 10
43.31727941176472
 20
-11.51246287213146
 30
0.0
 11
43.17316176470589
 21
-11.46198210290069
 31
0.0
  0
LINE
  5
1F1
330
1F
100
AcDbEntity
  8
Benennung
  6
Continuous2
 62
     4
420
    65535
370
    -3
100
AcDbLine
 10
43.17316176470589
 20
-11.46198210290069
 30
0.0
 11
43.02218137254903
 21
-11.44515517982377
 31
0.0
  0
LINE
  5
1F2
330
1F
100
AcDbEntity
  8
Benennung
  6
Continuous2
 62
     4
420
    65535
370
    -3
100
AcDbLine
 10
43.02218137254903
 20
-11.44515517982377
 30
0.0
 11
43.28296568627452
 21
-11.41150133366992
 31
0.0
  0
LINE
  5
1F3
330
1F
100
AcDbEntity
  8
Benennung
  6
Continuous2
 62
     4
420
    65535
370
    -3
100
AcDbLine
 10
43.28296568627452
 20
-11.41150133366992
 30
0.0
 11
43.40649509803922
 21
-11.36102056443916
 31
0.0
  0
LINE
  5
1F4
330
1F
100
AcDbEntity
  8
Benennung
  6
Continuous2
 62
     4
420
    65535
370
    -3
100
AcDbLine
 10
43.40649509803922
 20
-11.36102056443916
 30
0.0
 11
43.51629901960785
 21
-11.29371287213146
 31
0.0
  0
LINE
  5
1F5
330
1F
100
AcDbEntity
  8
Benennung
  6
Continuous2
 62
     4
420
    65535
370
    -3
100
AcDbLine
 10
43.51629901960785
 20
-11.29371287213146
 30
0.0
 11
43.6123774509804
 21
-11.20957825674685
 31
0.0
  0
LINE
  5
1F6
330
1F
100
AcDbEntity
  8
Benennung
  6
Continuous2
 62
     4
420
    65535
370
    -3
100
AcDbLine
 10
43.6123774509804
 20
-11.20957825674685
 30
0.0
 11
43.69473039215687
 21
-11.10861671828531
 31
0.0
  0
LINE
  5
1F7
330
1F
100
AcDbEntity
  8
Benennung
  6
Continuous2
 62
     4
420
    65535
370
    -3
100
AcDbLine
 10
43.69473039215687
 20
-11.10861671828531
 30
0.0
 11
43.74963235294118
 21
-10.99082825674685
 31
0.0
  0
LINE
  5
1F8
330
1F
100
AcDbEntity
  8
Benennung
  6
Continuous2
 62
     4
420
    65535
370
    -3
100
AcDbLine
 10
43.74963235294118
 20
-10.99082825674685
 30
0.0
 11
43.78394607843138
 21
-10.88986671828531
 31
0.0
  0
LINE
  5
1F9
330
1F
100
AcDbEntity
  8
Benennung
  6
Continuous2
 62
     4
420
    65535
370
    -3
100
AcDbLine
 10
43.78394607843138
 20
-10.88986671828531
 30
0.0
 11
43.79767156862746
 21
-10.75525133366992
 31
0.0
  0
LINE
  5
1FA
330
1F
100
AcDbEntity
  8
Benennung
  6
Continuous2
 62
     4
420
    65535
370
    -3
100
AcDbLine
 10
43.79767156862746
 20
-10.75525133366992
 30
0.0
 11
43.78394607843138
 21
-10.63746287213146
 31
0.0
  0
LINE
  5
1FB
330
1F
100
AcDbEntity
  8
Benennung
  6
Continuous2
 62
     4
420
    65535
370
    -3
100
AcDbLine
 10
43.78394607843138
 20
-10.63746287213146
 30
0.0
 11
43.74963235294118
 21
-10.53650133366992
 31
0.0
  0
LINE
  5
1FC
330
1F
100
AcDbEntity
  8
Benennung
  6
Continuous2
 62
     4
420
    65535
370
    -3
100
AcDbLine
 10
43.74963235294118
 20
-10.53650133366992
 30
0.0
 11
43.69473039215687
 21
-10.41871287213146
 31
0.0
  0
LINE
  5
1FD
330
1F
100
AcDbEntity
  8
Benennung
  6
Continuous2
 62
     4
420
    65535
370
    -3
100
AcDbLine
 10
43.69473039215687
 20
-10.41871287213146
 30
0.0
 11
43.6123774509804
 21
-10.31775133366992
 31
0.0
  0
LINE
  5
1FE
330
1F
100
AcDbEntity
  8
Benennung
  6
Continuous2
 62
     4
420
    65535
370
    -3
100
AcDbLine
 10
43.6123774509804
 20
-10.31775133366992
 30
0.0
 11
43.51629901960785
 21
-10.23361671828531
 31
0.0
  0
LINE
  5
1FF
330
1F
100
AcDbEntity
  8
Benennung
  6
Continuous2
 62
     4
420
    65535
370
    -3
100
AcDbLine
 10
43.51629901960785
 20
-10.23361671828531
 30
0.0
 11
43.40649509803922
 21
-10.16630902597762
 31
0.0
  0
LINE
  5
200
330
1F
100
AcDbEntity
  8
Benennung
  6
Continuous2
 62
     4
420
    65535
370
    -3
100
AcDbLine
 10
43.40649509803922
 20
-10.16630902597762
 30
0.0
 11
43.28296568627452
 21
-10.11582825674685
 31
0.0
  0
LINE
  5
201
330
1F
100
AcDbEntity
  8
Benennung
  6
Continuous2
 62
     4
420
    65535
370
    -3
100
AcDbLine
 10
43.28296568627452
 20
-10.11582825674685
 30
0.0
 11
43.02218137254903
 21
-10.082174410593
 31
0.0
  0
LINE
  5
202
330
1F
100
AcDbEntity
  8
Benennung
  6
Continuous2
 62
     4
420
    65535
370
    -3
100
AcDbLine
 10
43.02218137254903
 20
-10.082174410593
 30
0.0
 11
42.75453431372549
 21
-10.11582825674685
 31
0.0
  0
LINE
  5
203
330
1F
100
AcDbEntity
  8
Benennung
  6
Continuous2
 62
     4
420
    65535
370
    -3
100
AcDbLine
 10
42.75453431372549
 20
-10.11582825674685
 30
0.0
 11
42.63100490196079
 21
-10.16630902597762
 31
0.0
  0
LINE
  5
204
330
1F
100
AcDbEntity
  8
Benennung
  6
Continuous2
 62
     4
420
    65535
370
    -3
100
AcDbLine
 10
42.63100490196079
 20
-10.16630902597762
 30
0.0
 11
42.52120098039217
 21
-10.23361671828531
 31
0.0
  0
LINE
  5
205
330
1F
100
AcDbEntity
  8
Benennung
  6
Continuous2
 62
     4
420
    65535
370
    -3
100
AcDbLine
 10
42.52120098039217
 20
-10.23361671828531
 30
0.0
 11
42.42512254901961
 21
-10.31775133366992
 31
0.0
  0
LINE
  5
206
330
1F
100
AcDbEntity
  8
Benennung
  6
Continuous2
 62
     4
420
    65535
370
    -3
100
AcDbLine
 10
42.42512254901961
 20
-10.31775133366992
 30
0.0
 11
42.34276960784315
 21
-10.41871287213146
 31
0.0
  0
LINE
  5
207
330
1F
100
AcDbEntity
  8
Benennung
  6
Continuous2
 62
     4
420
    65535
370
    -3
100
AcDbLine
 10
42.34276960784315
 20
-10.41871287213146
 30
0.0
 11
42.28786764705883
 21
-10.53650133366992
 31
0.0
  0
LINE
  5
208
330
1F
100
AcDbEntity
  8
Benennung
  6
Continuous2
 62
     4
420
    65535
370
    -3
100
AcDbLine
 10
42.28786764705883
 20
-10.53650133366992
 30
0.0
 11
42.25355392156863
 21
-10.63746287213146
 31
0.0
  0
LINE
  5
209
330
1F
100
AcDbEntity
  8
Benennung
  6
Continuous2
 62
     4
420
    65535
370
    -3
100
AcDbLine
 10
42.25355392156863
 20
-10.63746287213146
 30
0.0
 11
42.23982843137256
 21
-10.75525133366992
 31
0.0
  0
LINE
  5
20A
330
1F
100
AcDbEntity
  8
Benennung
  6
Continuous2
 62
     4
420
    65535
370
    -3
100
AcDbLine
 10
44.24375000000001
 20
-10.082174410593
 30
0.0
 11
45.99375000000001
 21
-10.082174410593
 31
0.0
  0
LINE
  5
20B
330
1F
100
AcDbEntity
  8
Benennung
  6
Continuous2
 62
     4
420
    65535
370
    -3
100
AcDbLine
 10
45.99375000000001
 20
-10.082174410593
 30
0.0
 11
44.24375000000001
 21
-13.582174410593
 31
0.0
  0
LINE
  5
20C
330
1F
100
AcDbEntity
  8
Benennung
  6
Continuous2
 62
     4
420
    65535
370
    -3
100
AcDbLine
 10
46.34375000000001
 20
-13.04371287213146
 30
0.0
 11
46.43982843137255
 21
-13.19515517982377
 31
0.0
  0
LINE
  5
20D
330
1F
100
AcDbEntity
  8
Benennung
  6
Continuous2
 62
     4
420
    65535
370
    -3
100
AcDbLine
 10
46.43982843137255
 20
-13.19515517982377
 30
0.0
 11
46.55649509803922
 21
-13.32977056443916
 31
0.0
  0
LINE
  5
20E
330
1F
100
AcDbEntity
  8
Benennung
  6
Continuous2
 62
     4
420
    65535
370
    -3
100
AcDbLine
 10
46.55649509803922
 20
-13.32977056443916
 30
0.0
 11
46.68688725490197
 21
-13.43073210290069
 31
0.0
  0
LINE
  5
20F
330
1F
100
AcDbEntity
  8
Benennung
  6
Continuous2
 62
     4
420
    65535
370
    -3
100
AcDbLine
 10
46.68688725490197
 20
-13.43073210290069
 30
0.0
 11
46.83786764705883
 21
-13.51486671828531
 31
0.0
  0
LINE
  5
210
330
1F
100
AcDbEntity
  8
Benennung
  6
Continuous2
 62
     4
420
    65535
370
    -3
100
AcDbLine
 10
46.83786764705883
 20
-13.51486671828531
 30
0.0
 11
46.99571078431373
 21
-13.56534748751608
 31
0.0
  0
LINE
  5
211
330
1F
100
AcDbEntity
  8
Benennung
  6
Continuous2
 62
     4
420
    65535
370
    -3
100
AcDbLine
 10
46.99571078431373
 20
-13.56534748751608
 30
0.0
 11
47.15355392156864
 21
-13.582174410593
 31
0.0
  0
LINE
  5
212
330
1F
100
AcDbEntity
  8
Benennung
  6
Continuous2
 62
     4
420
    65535
370
    -3
100
AcDbLine
 10
47.15355392156864
 20
-13.582174410593
 30
0.0
 11
47.31825980392158
 21
-13.56534748751608
 31
0.0
  0
LINE
  5
213
330
1F
100
AcDbEntity
  8
Benennung
  6
Continuous2
 62
     4
420
    65535
370
    -3
100
AcDbLine
 10
47.31825980392158
 20
-13.56534748751608
 30
0.0
 11
47.47610294117648
 21
-13.51486671828531
 31
0.0
  0
LINE
  5
214
330
1F
100
AcDbEntity
  8
Benennung
  6
Continuous2
 62
     4
420
    65535
370
    -3
100
AcDbLine
 10
47.47610294117648
 20
-13.51486671828531
 30
0.0
 11
47.62708333333334
 21
-13.43073210290069
 31
0.0
  0
LINE
  5
215
330
1F
100
AcDbEntity
  8
Benennung
  6
Continuous2
 62
     4
420
    65535
370
    -3
100
AcDbLine
 10
47.62708333333334
 20
-13.43073210290069
 30
0.0
 11
47.75747549019609
 21
-13.32977056443916
 31
0.0
  0
LINE
  5
216
330
1F
100
AcDbEntity
  8
Benennung
  6
Continuous2
 62
     4
420
    65535
370
    -3
100
AcDbLine
 10
47.75747549019609
 20
-13.32977056443916
 30
0.0
 11
47.87414215686275
 21
-13.19515517982377
 31
0.0
  0
LINE
  5
217
330
1F
100
AcDbEntity
  8
Benennung
  6
Continuous2
 62
     4
420
    65535
370
    -3
100
AcDbLine
 10
47.87414215686275
 20
-13.19515517982377
 30
0.0
 11
47.9702205882353
 21
-13.04371287213146
 31
0.0
  0
LINE
  5
218
330
1F
100
AcDbEntity
  8
Benennung
  6
Continuous2
 62
     4
420
    65535
370
    -3
100
AcDbLine
 10
47.9702205882353
 20
-13.04371287213146
 30
0.0
 11
48.03884803921569
 21
-12.87544364136223
 31
0.0
  0
LINE
  5
219
330
1F
100
AcDbEntity
  8
Benennung
  6
Continuous2
 62
     4
420
    65535
370
    -3
100
AcDbLine
 10
48.03884803921569
 20
-12.87544364136223
 30
0.0
 11
48.08002450980393
 21
-12.707174410593
 31
0.0
  0
LINE
  5
21A
330
1F
100
AcDbEntity
  8
Benennung
  6
Continuous2
 62
     4
420
    65535
370
    -3
100
AcDbLine
 10
48.08002450980393
 20
-12.707174410593
 30
0.0
 11
48.09375000000001
 21
-12.50525133366992
 31
0.0
  0
LINE
  5
21B
330
1F
100
AcDbEntity
  8
Benennung
  6
Continuous2
 62
     4
420
    65535
370
    -3
100
AcDbLine
 10
48.09375000000001
 20
-12.50525133366992
 30
0.0
 11
48.08002450980393
 21
-12.32015517982377
 31
0.0
  0
LINE
  5
21C
330
1F
100
AcDbEntity
  8
Benennung
  6
Continuous2
 62
     4
420
    65535
370
    -3
100
AcDbLine
 10
48.08002450980393
 20
-12.32015517982377
 30
0.0
 11
48.03884803921569
 21
-12.15188594905454
 31
0.0
  0
LINE
  5
21D
330
1F
100
AcDbEntity
  8
Benennung
  6
Continuous2
 62
     4
420
    65535
370
    -3
100
AcDbLine
 10
48.03884803921569
 20
-12.15188594905454
 30
0.0
 11
47.9702205882353
 21
-11.98361671828531
 31
0.0
  0
LINE
  5
21E
330
1F
100
AcDbEntity
  8
Benennung
  6
Continuous2
 62
     4
420
    65535
370
    -3
100
AcDbLine
 10
47.9702205882353
 20
-11.98361671828531
 30
0.0
 11
47.87414215686275
 21
-11.832174410593
 31
0.0
  0
LINE
  5
21F
330
1F
100
AcDbEntity
  8
Benennung
  6
Continuous2
 62
     4
420
    65535
370
    -3
100
AcDbLine
 10
47.87414215686275
 20
-11.832174410593
 30
0.0
 11
47.75747549019609
 21
-11.69755902597762
 31
0.0
  0
LINE
  5
220
330
1F
100
AcDbEntity
  8
Benennung
  6
Continuous2
 62
     4
420
    65535
370
    -3
100
AcDbLine
 10
47.75747549019609
 20
-11.69755902597762
 30
0.0
 11
47.62708333333334
 21
-11.59659748751608
 31
0.0
  0
LINE
  5
221
330
1F
100
AcDbEntity
  8
Benennung
  6
Continuous2
 62
     4
420
    65535
370
    -3
100
AcDbLine
 10
47.62708333333334
 20
-11.59659748751608
 30
0.0
 11
47.47610294117648
 21
-11.51246287213146
 31
0.0
  0
LINE
  5
222
330
1F
100
AcDbEntity
  8
Benennung
  6
Continuous2
 62
     4
420
    65535
370
    -3
100
AcDbLine
 10
47.47610294117648
 20
-11.51246287213146
 30
0.0
 11
47.31825980392158
 21
-11.46198210290069
 31
0.0
  0
LINE
  5
223
330
1F
100
AcDbEntity
  8
Benennung
  6
Continuous2
 62
     4
420
    65535
370
    -3
100
AcDbLine
 10
47.31825980392158
 20
-11.46198210290069
 30
0.0
 11
47.15355392156864
 21
-11.44515517982377
 31
0.0
  0
LINE
  5
224
330
1F
100
AcDbEntity
  8
Benennung
  6
Continuous2
 62
     4
420
    65535
370
    -3
100
AcDbLine
 10
47.15355392156864
 20
-11.44515517982377
 30
0.0
 11
46.99571078431373
 21
-11.46198210290069
 31
0.0
  0
LINE
  5
225
330
1F
100
AcDbEntity
  8
Benennung
  6
Continuous2
 62
     4
420
    65535
370
    -3
100
AcDbLine
 10
46.99571078431373
 20
-11.46198210290069
 30
0.0
 11
46.83786764705883
 21
-11.51246287213146
 31
0.0
  0
LINE
  5
226
330
1F
100
AcDbEntity
  8
Benennung
  6
Continuous2
 62
     4
420
    65535
370
    -3
100
AcDbLine
 10
46.83786764705883
 20
-11.51246287213146
 30
0.0
 11
46.68688725490197
 21
-11.59659748751608
 31
0.0
  0
LINE
  5
227
330
1F
100
AcDbEntity
  8
Benennung
  6
Continuous2
 62
     4
420
    65535
370
    -3
100
AcDbLine
 10
46.68688725490197
 20
-11.59659748751608
 30
0.0
 11
46.55649509803922
 21
-11.69755902597762
 31
0.0
  0
LINE
  5
228
330
1F
100
AcDbEntity
  8
Benennung
  6
Continuous2
 62
     4
420
    65535
370
    -3
100
AcDbLine
 10
46.55649509803922
 20
-11.69755902597762
 30
0.0
 11
46.43982843137255
 21
-11.832174410593
 31
0.0
  0
LINE
  5
229
330
1F
100
AcDbEntity
  8
Benennung
  6
Continuous2
 62
     4
420
    65535
370
    -3
100
AcDbLine
 10
46.43982843137255
 20
-11.832174410593
 30
0.0
 11
46.36433823529413
 21
-11.94996287213146
 31
0.0
  0
LINE
  5
22A
330
1F
100
AcDbEntity
  8
Benennung
  6
Continuous2
 62
     4
420
    65535
370
    -3
100
AcDbLine
 10
46.36433823529413
 20
-11.94996287213146
 30
0.0
 11
46.36433823529413
 21
-10.082174410593
 31
0.0
  0
LINE
  5
22B
330
1F
100
AcDbEntity
  8
Benennung
  6
Continuous2
 62
     4
420
    65535
370
    -3
100
AcDbLine
 10
46.36433823529413
 20
-10.082174410593
 30
0.0
 11
48.09375000000001
 21
-10.082174410593
 31
0.0
  0
LINE
  5
22C
330
1F
100
AcDbEntity
  8
Benennung
  6
Continuous2
 62
     4
420
    65535
370
    -3
100
AcDbLine
 10
48.44375000000001
 20
-12.50525133366992
 30
0.0
 11
48.45747549019609
 21
-12.707174410593
 31
0.0
  0
LINE
  5
22D
330
1F
100
AcDbEntity
  8
Benennung
  6
Continuous2
 62
     4
420
    65535
370
    -3
100
AcDbLine
 10
48.45747549019609
 20
-12.707174410593
 30
0.0
 11
48.49865196078432
 21
-12.87544364136223
 31
0.0
  0
LINE
  5
22E
330
1F
100
AcDbEntity
  8
Benennung
  6
Continuous2
 62
     4
420
    65535
370
    -3
100
AcDbLine
 10
48.49865196078432
 20
-12.87544364136223
 30
0.0
 11
48.56041666666668
 21
-13.04371287213146
 31
0.0
  0
LINE
  5
22F
330
1F
100
AcDbEntity
  8
Benennung
  6
Continuous2
 62
     4
420
    65535
370
    -3
100
AcDbLine
 10
48.56041666666668
 20
-13.04371287213146
 30
0.0
 11
48.64963235294118
 21
-13.19515517982377
 31
0.0
  0
LINE
  5
230
330
1F
100
AcDbEntity
  8
Benennung
  6
Continuous2
 62
     4
420
    65535
370
    -3
100
AcDbLine
 10
48.64963235294118
 20
-13.19515517982377
 30
0.0
 11
48.75943627450981
 21
-13.32977056443916
 31
0.0
  0
LINE
  5
231
330
1F
100
AcDbEntity
  8
Benennung
  6
Continuous2
 62
     4
420
    65535
370
    -3
100
AcDbLine
 10
48.75943627450981
 20
-13.32977056443916
 30
0.0
 11
48.88296568627452
 21
-13.43073210290069
 31
0.0
  0
LINE
  5
232
330
1F
100
AcDbEntity
  8
Benennung
  6
Continuous2
 62
     4
420
    65535
370
    -3
100
AcDbLine
 10
48.88296568627452
 20
-13.43073210290069
 30
0.0
 11
49.0202205882353
 21
-13.51486671828531
 31
0.0
  0
LINE
  5
233
330
1F
100
AcDbEntity
  8
Benennung
  6
Continuous2
 62
     4
420
    65535
370
    -3
100
AcDbLine
 10
49.0202205882353
 20
-13.51486671828531
 30
0.0
 11
49.16433823529412
 21
-13.56534748751608
 31
0.0
  0
LINE
  5
234
330
1F
100
AcDbEntity
  8
Benennung
  6
Continuous2
 62
     4
420
    65535
370
    -3
100
AcDbLine
 10
49.16433823529412
 20
-13.56534748751608
 30
0.0
 11
49.32218137254903
 21
-13.582174410593
 31
0.0
  0
LINE
  5
235
330
1F
100
AcDbEntity
  8
Benennung
  6
Continuous2
 62
     4
420
    65535
370
    -3
100
AcDbLine
 10
49.32218137254903
 20
-13.582174410593
 30
0.0
 11
49.47316176470589
 21
-13.56534748751608
 31
0.0
  0
LINE
  5
236
330
1F
100
AcDbEntity
  8
Benennung
  6
Continuous2
 62
     4
420
    65535
370
    -3
100
AcDbLine
 10
49.47316176470589
 20
-13.56534748751608
 30
0.0
 11
49.61727941176471
 21
-13.51486671828531
 31
0.0
  0
LINE
  5
237
330
1F
100
AcDbEntity
  8
Benennung
  6
Continuous2
 62
     4
420
    65535
370
    -3
100
AcDbLine
 10
49.61727941176471
 20
-13.51486671828531
 30
0.0
 11
49.7545343137255
 21
-13.43073210290069
 31
0.0
  0
LINE
  5
238
330
1F
100
AcDbEntity
  8
Benennung
  6
Continuous2
 62
     4
420
    65535
370
    -3
100
AcDbLine
 10
49.7545343137255
 20
-13.43073210290069
 30
0.0
 11
49.87806372549021
 21
-13.32977056443916
 31
0.0
  0
LINE
  5
239
330
1F
100
AcDbEntity
  8
Benennung
  6
Continuous2
 62
     4
420
    65535
370
    -3
100
AcDbLine
 10
49.87806372549021
 20
-13.32977056443916
 30
0.0
 11
49.98786764705883
 21
-13.19515517982377
 31
0.0
  0
LINE
  5
23A
330
1F
100
AcDbEntity
  8
Benennung
  6
Continuous2
 62
     4
420
    65535
370
    -3
100
AcDbLine
 10
49.98786764705883
 20
-13.19515517982377
 30
0.0
 11
50.07708333333334
 21
-13.04371287213146
 31
0.0
  0
LINE
  5
23B
330
1F
100
AcDbEntity
  8
Benennung
  6
Continuous2
 62
     4
420
    65535
370
    -3
100
AcDbLine
 10
50.07708333333334
 20
-13.04371287213146
 30
0.0
 11
50.13884803921569
 21
-12.87544364136223
 31
0.0
  0
LINE
  5
23C
330
1F
100
AcDbEntity
  8
Benennung
  6
Continuous2
 62
     4
420
    65535
370
    -3
100
AcDbLine
 10
50.13884803921569
 20
-12.87544364136223
 30
0.0
 11
50.18002450980393
 21
-12.707174410593
 31
0.0
  0
LINE
  5
23D
330
1F
100
AcDbEntity
  8
Benennung
  6
Continuous2
 62
     4
420
    65535
370
    -3
100
AcDbLine
 10
50.18002450980393
 20
-12.707174410593
 30
0.0
 11
50.19375000000001
 21
-12.50525133366992
 31
0.0
  0
LINE
  5
23E
330
1F
100
AcDbEntity
  8
Benennung
  6
Continuous2
 62
     4
420
    65535
370
    -3
100
AcDbLine
 10
50.19375000000001
 20
-12.50525133366992
 30
0.0
 11
50.18002450980393
 21
-12.32015517982377
 31
0.0
  0
LINE
  5
23F
330
1F
100
AcDbEntity
  8
Benennung
  6
Continuous2
 62
     4
420
    65535
370
    -3
100
AcDbLine
 10
50.18002450980393
 20
-12.32015517982377
 30
0.0
 11
50.13884803921569
 21
-12.15188594905454
 31
0.0
  0
LINE
  5
240
330
1F
100
AcDbEntity
  8
Benennung
  6
Continuous2
 62
     4
420
    65535
370
    -3
100
AcDbLine
 10
50.13884803921569
 20
-12.15188594905454
 30
0.0
 11
50.07708333333334
 21
-11.98361671828531
 31
0.0
  0
LINE
  5
241
330
1F
100
AcDbEntity
  8
Benennung
  6
Continuous2
 62
     4
420
    65535
370
    -3
100
AcDbLine
 10
50.07708333333334
 20
-11.98361671828531
 30
0.0
 11
49.98786764705883
 21
-11.832174410593
 31
0.0
  0
LINE
  5
242
330
1F
100
AcDbEntity
  8
Benennung
  6
Continuous2
 62
     4
420
    65535
370
    -3
100
AcDbLine
 10
49.98786764705883
 20
-11.832174410593
 30
0.0
 11
49.87806372549021
 21
-11.69755902597762
 31
0.0
  0
LINE
  5
243
330
1F
100
AcDbEntity
  8
Benennung
  6
Continuous2
 62
     4
420
    65535
370
    -3
100
AcDbLine
 10
49.87806372549021
 20
-11.69755902597762
 30
0.0
 11
49.7545343137255
 21
-11.59659748751608
 31
0.0
  0
LINE
  5
244
330
1F
100
AcDbEntity
  8
Benennung
  6
Continuous2
 62
     4
420
    65535
370
    -3
100
AcDbLine
 10
49.7545343137255
 20
-11.59659748751608
 30
0.0
 11
49.61727941176471
 21
-11.51246287213146
 31
0.0
  0
LINE
  5
245
330
1F
100
AcDbEntity
  8
Benennung
  6
Continuous2
 62
     4
420
    65535
370
    -3
100
AcDbLine
 10
49.61727941176471
 20
-11.51246287213146
 30
0.0
 11
49.47316176470589
 21
-11.46198210290069
 31
0.0
  0
LINE
  5
246
330
1F
100
AcDbEntity
  8
Benennung
  6
Continuous2
 62
     4
420
    65535
370
    -3
100
AcDbLine
 10
49.47316176470589
 20
-11.46198210290069
 30
0.0
 11
49.32218137254903
 21
-11.44515517982377
 31
0.0
  0
LINE
  5
247
330
1F
100
AcDbEntity
  8
Benennung
  6
Continuous2
 62
     4
420
    65535
370
    -3
100
AcDbLine
 10
49.32218137254903
 20
-11.44515517982377
 30
0.0
 11
49.58296568627452
 21
-11.41150133366992
 31
0.0
  0
LINE
  5
248
330
1F
100
AcDbEntity
  8
Benennung
  6
Continuous2
 62
     4
420
    65535
370
    -3
100
AcDbLine
 10
49.58296568627452
 20
-11.41150133366992
 30
0.0
 11
49.70649509803922
 21
-11.36102056443916
 31
0.0
  0
LINE
  5
249
330
1F
100
AcDbEntity
  8
Benennung
  6
Continuous2
 62
     4
420
    65535
370
    -3
100
AcDbLine
 10
49.70649509803922
 20
-11.36102056443916
 30
0.0
 11
49.81629901960785
 21
-11.29371287213146
 31
0.0
  0
LINE
  5
24A
330
1F
100
AcDbEntity
  8
Benennung
  6
Continuous2
 62
     4
420
    65535
370
    -3
100
AcDbLine
 10
49.81629901960785
 20
-11.29371287213146
 30
0.0
 11
49.9123774509804
 21
-11.20957825674685
 31
0.0
  0
LINE
  5
24B
330
1F
100
AcDbEntity
  8
Benennung
  6
Continuous2
 62
     4
420
    65535
370
    -3
100
AcDbLine
 10
49.9123774509804
 20
-11.20957825674685
 30
0.0
 11
49.99473039215687
 21
-11.10861671828531
 31
0.0
  0
LINE
  5
24C
330
1F
100
AcDbEntity
  8
Benennung
  6
Continuous2
 62
     4
420
    65535
370
    -3
100
AcDbLine
 10
49.99473039215687
 20
-11.10861671828531
 30
0.0
 11
50.04963235294119
 21
-10.99082825674685
 31
0.0
  0
LINE
  5
24D
330
1F
100
AcDbEntity
  8
Benennung
  6
Continuous2
 62
     4
420
    65535
370
    -3
100
AcDbLine
 10
50.04963235294119
 20
-10.99082825674685
 30
0.0
 11
50.08394607843138
 21
-10.88986671828531
 31
0.0
  0
LINE
  5
24E
330
1F
100
AcDbEntity
  8
Benennung
  6
Continuous2
 62
     4
420
    65535
370
    -3
100
AcDbLine
 10
50.08394607843138
 20
-10.88986671828531
 30
0.0
 11
50.09767156862746
 21
-10.75525133366992
 31
0.0
  0
LINE
  5
24F
330
1F
100
AcDbEntity
  8
Benennung
  6
Continuous2
 62
     4
420
    65535
370
    -3
100
AcDbLine
 10
50.09767156862746
 20
-10.75525133366992
 30
0.0
 11
50.08394607843138
 21
-10.63746287213146
 31
0.0
  0
LINE
  5
250
330
1F
100
AcDbEntity
  8
Benennung
  6
Continuous2
 62
     4
420
    65535
370
    -3
100
AcDbLine
 10
50.08394607843138
 20
-10.63746287213146
 30
0.0
 11
50.04963235294119
 21
-10.53650133366992
 31
0.0
  0
LINE
  5
251
330
1F
100
AcDbEntity
  8
Benennung
  6
Continuous2
 62
     4
420
    65535
370
    -3
100
AcDbLine
 10
50.04963235294119
 20
-10.53650133366992
 30
0.0
 11
49.99473039215687
 21
-10.41871287213146
 31
0.0
  0
LINE
  5
252
330
1F
100
AcDbEntity
  8
Benennung
  6
Continuous2
 62
     4
420
    65535
370
    -3
100
AcDbLine
 10
49.99473039215687
 20
-10.41871287213146
 30
0.0
 11
49.9123774509804
 21
-10.31775133366992
 31
0.0
  0
LINE
  5
253
330
1F
100
AcDbEntity
  8
Benennung
  6
Continuous2
 62
     4
420
    65535
370
    -3
100
AcDbLine
 10
49.9123774509804
 20
-10.31775133366992
 30
0.0
 11
49.81629901960785
 21
-10.23361671828531
 31
0.0
  0
LINE
  5
254
330
1F
100
AcDbEntity
  8
Benennung
  6
Continuous2
 62
     4
420
    65535
370
    -3
100
AcDbLine
 10
49.81629901960785
 20
-10.23361671828531
 30
0.0
 11
49.70649509803922
 21
-10.16630902597762
 31
0.0
  0
LINE
  5
255
330
1F
100
AcDbEntity
  8
Benennung
  6
Continuous2
 62
     4
420
    65535
370
    -3
100
AcDbLine
 10
49.70649509803922
 20
-10.16630902597762
 30
0.0
 11
49.58296568627452
 21
-10.11582825674685
 31
0.0
  0
LINE
  5
256
330
1F
100
AcDbEntity
  8
Benennung
  6
Continuous2
 62
     4
420
    65535
370
    -3
100
AcDbLine
 10
49.58296568627452
 20
-10.11582825674685
 30
0.0
 11
49.32218137254903
 21
-10.082174410593
 31
0.0
  0
LINE
  5
257
330
1F
100
AcDbEntity
  8
Benennung
  6
Continuous2
 62
     4
420
    65535
370
    -3
100
AcDbLine
 10
49.32218137254903
 20
-10.082174410593
 30
0.0
 11
49.0545343137255
 21
-10.11582825674685
 31
0.0
  0
LINE
  5
258
330
1F
100
AcDbEntity
  8
Benennung
  6
Continuous2
 62
     4
420
    65535
370
    -3
100
AcDbLine
 10
49.0545343137255
 20
-10.11582825674685
 30
0.0
 11
48.93100490196079
 21
-10.16630902597762
 31
0.0
  0
LINE
  5
259
330
1F
100
AcDbEntity
  8
Benennung
  6
Continuous2
 62
     4
420
    65535
370
    -3
100
AcDbLine
 10
48.93100490196079
 20
-10.16630902597762
 30
0.0
 11
48.82120098039216
 21
-10.23361671828531
 31
0.0
  0
LINE
  5
25A
330
1F
100
AcDbEntity
  8
Benennung
  6
Continuous2
 62
     4
420
    65535
370
    -3
100
AcDbLine
 10
48.82120098039216
 20
-10.23361671828531
 30
0.0
 11
48.72512254901962
 21
-10.31775133366992
 31
0.0
  0
LINE
  5
25B
330
1F
100
AcDbEntity
  8
Benennung
  6
Continuous2
 62
     4
420
    65535
370
    -3
100
AcDbLine
 10
48.72512254901962
 20
-10.31775133366992
 30
0.0
 11
48.64276960784314
 21
-10.41871287213146
 31
0.0
  0
LINE
  5
25C
330
1F
100
AcDbEntity
  8
Benennung
  6
Continuous2
 62
     4
420
    65535
370
    -3
100
AcDbLine
 10
48.64276960784314
 20
-10.41871287213146
 30
0.0
 11
48.58786764705883
 21
-10.53650133366992
 31
0.0
  0
LINE
  5
25D
330
1F
100
AcDbEntity
  8
Benennung
  6
Continuous2
 62
     4
420
    65535
370
    -3
100
AcDbLine
 10
48.58786764705883
 20
-10.53650133366992
 30
0.0
 11
48.55355392156864
 21
-10.63746287213146
 31
0.0
  0
LINE
  5
25E
330
1F
100
AcDbEntity
  8
Benennung
  6
Continuous2
 62
     4
420
    65535
370
    -3
100
AcDbLine
 10
48.55355392156864
 20
-10.63746287213146
 30
0.0
 11
48.53982843137256
 21
-10.75525133366992
 31
0.0
  0
LINE
  5
25F
330
1F
100
AcDbEntity
  8
Benennung
  6
Continuous2
 62
     4
420
    65535
370
    -3
100
AcDbLine
 10
51.57316176470589
 20
-10.11582825674685
 30
0.0
 11
51.42218137254903
 21
-10.082174410593
 31
0.0
  0
LINE
  5
260
330
1F
100
AcDbEntity
  8
Benennung
  6
Continuous2
 62
     4
420
    65535
370
    -3
100
AcDbLine
 10
51.42218137254903
 20
-10.082174410593
 30
0.0
 11
51.26433823529413
 21
-10.11582825674685
 31
0.0
  0
LINE
  5
261
330
1F
100
AcDbEntity
  8
Benennung
  6
Continuous2
 62
     4
420
    65535
370
    -3
100
AcDbLine
 10
51.26433823529413
 20
-10.11582825674685
 30
0.0
 11
51.1202205882353
 21
-10.18313594905454
 31
0.0
  0
LINE
  5
262
330
1F
100
AcDbEntity
  8
Benennung
  6
Continuous2
 62
     4
420
    65535
370
    -3
100
AcDbLine
 10
51.1202205882353
 20
-10.18313594905454
 30
0.0
 11
50.98296568627452
 21
-10.31775133366992
 31
0.0
  0
LINE
  5
263
330
1F
100
AcDbEntity
  8
Benennung
  6
Continuous2
 62
     4
420
    65535
370
    -3
100
AcDbLine
 10
50.98296568627452
 20
-10.31775133366992
 30
0.0
 11
50.85943627450981
 21
-10.48602056443915
 31
0.0
  0
LINE
  5
264
330
1F
100
AcDbEntity
  8
Benennung
  6
Continuous2
 62
     4
420
    65535
370
    -3
100
AcDbLine
 10
50.85943627450981
 20
-10.48602056443915
 30
0.0
 11
50.74963235294118
 21
-10.70477056443916
 31
0.0
  0
LINE
  5
265
330
1F
100
AcDbEntity
  8
Benennung
  6
Continuous2
 62
     4
420
    65535
370
    -3
100
AcDbLine
 10
50.74963235294118
 20
-10.70477056443916
 30
0.0
 11
50.66041666666667
 21
-10.957174410593
 31
0.0
  0
LINE
  5
266
330
1F
100
AcDbEntity
  8
Benennung
  6
Continuous2
 62
     4
420
    65535
370
    -3
100
AcDbLine
 10
50.66041666666667
 20
-10.957174410593
 30
0.0
 11
50.59865196078432
 21
-11.22640517982377
 31
0.0
  0
LINE
  5
267
330
1F
100
AcDbEntity
  8
Benennung
  6
Continuous2
 62
     4
420
    65535
370
    -3
100
AcDbLine
 10
50.59865196078432
 20
-11.22640517982377
 30
0.0
 11
50.55747549019608
 21
-11.52928979520839
 31
0.0
  0
LINE
  5
268
330
1F
100
AcDbEntity
  8
Benennung
  6
Continuous2
 62
     4
420
    65535
370
    -3
100
AcDbLine
 10
50.55747549019608
 20
-11.52928979520839
 30
0.0
 11
50.54375
 21
-11.832174410593
 31
0.0
  0
LINE
  5
269
330
1F
100
AcDbEntity
  8
Benennung
  6
Continuous2
 62
     4
420
    65535
370
    -3
100
AcDbLine
 10
50.54375
 20
-11.832174410593
 30
0.0
 11
50.55747549019608
 21
-12.13505902597762
 31
0.0
  0
LINE
  5
26A
330
1F
100
AcDbEntity
  8
Benennung
  6
Continuous2
 62
     4
420
    65535
370
    -3
100
AcDbLine
 10
50.55747549019608
 20
-12.13505902597762
 30
0.0
 11
50.59865196078432
 21
-12.43794364136223
 31
0.0
  0
LINE
  5
26B
330
1F
100
AcDbEntity
  8
Benennung
  6
Continuous2
 62
     4
420
    65535
370
    -3
100
AcDbLine
 10
50.59865196078432
 20
-12.43794364136223
 30
0.0
 11
50.66041666666667
 21
-12.707174410593
 31
0.0
  0
LINE
  5
26C
330
1F
100
AcDbEntity
  8
Benennung
  6
Continuous2
 62
     4
420
    65535
370
    -3
100
AcDbLine
 10
50.66041666666667
 20
-12.707174410593
 30
0.0
 11
50.74963235294118
 21
-12.95957825674685
 31
0.0
  0
LINE
  5
26D
330
1F
100
AcDbEntity
  8
Benennung
  6
Continuous2
 62
     4
420
    65535
370
    -3
100
AcDbLine
 10
50.74963235294118
 20
-12.95957825674685
 30
0.0
 11
50.85943627450981
 21
-13.17832825674685
 31
0.0
  0
LINE
  5
26E
330
1F
100
AcDbEntity
  8
Benennung
  6
Continuous2
 62
     4
420
    65535
370
    -3
100
AcDbLine
 10
50.85943627450981
 20
-13.17832825674685
 30
0.0
 11
50.98296568627452
 21
-13.34659748751608
 31
0.0
  0
LINE
  5
26F
330
1F
100
AcDbEntity
  8
Benennung
  6
Continuous2
 62
     4
420
    65535
370
    -3
100
AcDbLine
 10
50.98296568627452
 20
-13.34659748751608
 30
0.0
 11
51.1202205882353
 21
-13.48121287213146
 31
0.0
  0
LINE
  5
270
330
1F
100
AcDbEntity
  8
Benennung
  6
Continuous2
 62
     4
420
    65535
370
    -3
100
AcDbLine
 10
51.1202205882353
 20
-13.48121287213146
 30
0.0
 11
51.26433823529413
 21
-13.54852056443916
 31
0.0
  0
LINE
  5
271
330
1F
100
AcDbEntity
  8
Benennung
  6
Continuous2
 62
     4
420
    65535
370
    -3
100
AcDbLine
 10
51.26433823529413
 20
-13.54852056443916
 30
0.0
 11
51.42218137254903
 21
-13.582174410593
 31
0.0
  0
LINE
  5
272
330
1F
100
AcDbEntity
  8
Benennung
  6
Continuous2
 62
     4
420
    65535
370
    -3
100
AcDbLine
 10
51.42218137254903
 20
-13.582174410593
 30
0.0
 11
51.57316176470589
 21
-13.54852056443916
 31
0.0
  0
LINE
  5
273
330
1F
100
AcDbEntity
  8
Benennung
  6
Continuous2
 62
     4
420
    65535
370
    -3
100
AcDbLine
 10
51.57316176470589
 20
-13.54852056443916
 30
0.0
 11
51.71727941176471
 21
-13.48121287213146
 31
0.0
  0
LINE
  5
274
330
1F
100
AcDbEntity
  8
Benennung
  6
Continuous2
 62
     4
420
    65535
370
    -3
100
AcDbLine
 10
51.71727941176471
 20
-13.48121287213146
 30
0.0
 11
51.85453431372549
 21
-13.34659748751608
 31
0.0
  0
LINE
  5
275
330
1F
100
AcDbEntity
  8
Benennung
  6
Continuous2
 62
     4
420
    65535
370
    -3
100
AcDbLine
 10
51.85453431372549
 20
-13.34659748751608
 30
0.0
 11
51.9780637254902
 21
-13.17832825674685
 31
0.0
  0
LINE
  5
276
330
1F
100
AcDbEntity
  8
Benennung
  6
Continuous2
 62
     4
420
    65535
370
    -3
100
AcDbLine
 10
51.9780637254902
 20
-13.17832825674685
 30
0.0
 11
52.08786764705883
 21
-12.95957825674685
 31
0.0
  0
LINE
  5
277
330
1F
100
AcDbEntity
  8
Benennung
  6
Continuous2
 62
     4
420
    65535
370
    -3
100
AcDbLine
 10
52.08786764705883
 20
-12.95957825674685
 30
0.0
 11
52.17708333333334
 21
-12.707174410593
 31
0.0
  0
LINE
  5
278
330
1F
100
AcDbEntity
  8
Benennung
  6
Continuous2
 62
     4
420
    65535
370
    -3
100
AcDbLine
 10
52.17708333333334
 20
-12.707174410593
 30
0.0
 11
52.2388480392157
 21
-12.43794364136223
 31
0.0
  0
LINE
  5
279
330
1F
100
AcDbEntity
  8
Benennung
  6
Continuous2
 62
     4
420
    65535
370
    -3
100
AcDbLine
 10
52.2388480392157
 20
-12.43794364136223
 30
0.0
 11
52.28002450980392
 21
-12.13505902597762
 31
0.0
  0
LINE
  5
27A
330
1F
100
AcDbEntity
  8
Benennung
  6
Continuous2
 62
     4
420
    65535
370
    -3
100
AcDbLine
 10
52.28002450980392
 20
-12.13505902597762
 30
0.0
 11
52.29375
 21
-11.832174410593
 31
0.0
  0
LINE
  5
27B
330
1F
100
AcDbEntity
  8
Benennung
  6
Continuous2
 62
     4
420
    65535
370
    -3
100
AcDbLine
 10
52.29375
 20
-11.832174410593
 30
0.0
 11
52.28002450980392
 21
-11.52928979520839
 31
0.0
  0
LINE
  5
27C
330
1F
100
AcDbEntity
  8
Benennung
  6
Continuous2
 62
     4
420
    65535
370
    -3
100
AcDbLine
 10
52.28002450980392
 20
-11.52928979520839
 30
0.0
 11
52.2388480392157
 21
-11.22640517982377
 31
0.0
  0
LINE
  5
27D
330
1F
100
AcDbEntity
  8
Benennung
  6
Continuous2
 62
     4
420
    65535
370
    -3
100
AcDbLine
 10
52.2388480392157
 20
-11.22640517982377
 30
0.0
 11
52.17708333333334
 21
-10.957174410593
 31
0.0
  0
LINE
  5
27E
330
1F
100
AcDbEntity
  8
Benennung
  6
Continuous2
 62
     4
420
    65535
370
    -3
100
AcDbLine
 10
52.17708333333334
 20
-10.957174410593
 30
0.0
 11
52.08786764705883
 21
-10.70477056443916
 31
0.0
  0
LINE
  5
27F
330
1F
100
AcDbEntity
  8
Benennung
  6
Continuous2
 62
     4
420
    65535
370
    -3
100
AcDbLine
 10
52.08786764705883
 20
-10.70477056443916
 30
0.0
 11
51.9780637254902
 21
-10.48602056443915
 31
0.0
  0
LINE
  5
280
330
1F
100
AcDbEntity
  8
Benennung
  6
Continuous2
 62
     4
420
    65535
370
    -3
100
AcDbLine
 10
51.9780637254902
 20
-10.48602056443915
 30
0.0
 11
51.85453431372549
 21
-10.31775133366992
 31
0.0
  0
LINE
  5
281
330
1F
100
AcDbEntity
  8
Benennung
  6
Continuous2
 62
     4
420
    65535
370
    -3
100
AcDbLine
 10
51.85453431372549
 20
-10.31775133366992
 30
0.0
 11
51.71727941176471
 21
-10.18313594905454
 31
0.0
  0
LINE
  5
282
330
1F
100
AcDbEntity
  8
Benennung
  6
Continuous2
 62
     4
420
    65535
370
    -3
100
AcDbLine
 10
51.71727941176471
 20
-10.18313594905454
 30
0.0
 11
51.57316176470589
 21
-10.11582825674685
 31
0.0
  0
VIEWPORT
  5
283
102
{ACAD_XDICTIONARY
360
285
102
}
330
23
100
AcDbEntity
 67
     1
  8
0
100
AcDbViewport
 10
128.5
 20
97.5
 30
0.0
 40
314.226
 41
222.18
 68
     1
 69
     1
 12
128.5
 22
97.5
 13
0.0
 23
0.0
 14
10.0
 24
10.0
 15
10.0
 25
10.0
 16
0.0
 26
0.0
 36
1.0
 17
0.0
 27
0.0
 37
0.0
 42
50.0
 43
0.0
 44
0.0
 45
222.18
 50
0.0
 51
0.0
 72
   100
 90
   557152
  1

281
     0
 71
     1
 74
     0
110
0.0
120
0.0
130
0.0
111
1.0
121
0.0
131
0.0
112
0.0
122
1.0
132
0.0
 79
     0
146
0.0
170
     0
  0
ENDSEC
  0
SECTION
  2
OBJECTS
  0
DICTIONARY
  5
C
330
0
100
AcDbDictionary
281
     1
  3
ACAD_DETAILVIEWSTYLE
350
2CC
  3
ACAD_GROUP
350
D
  3
ACAD_LAYOUT
350
1A
  3
ACAD_MATERIAL
350
43
  3
ACAD_MLEADERSTYLE
350
6B
  3
ACAD_MLINESTYLE
350
17
  3
ACAD_PLOTSETTINGS
350
19
  3
ACAD_PLOTSTYLENAME
350
E
  3
ACAD_SCALELIST
350
47
  3
ACAD_SECTIONVIEWSTYLE
350
2CD
  3
ACAD_TABLESTYLE
350
69
  3
ACAD_VISUALSTYLE
350
2A
  3
ACDB_RECOMPOSE_DATA
350
2C9
  3
AcDbVariableDictionary
350
289
  0
DICTIONARY
  5
287
330
8
100
AcDbDictionary
280
     1
281
     1
  3
ACAD_XREC_ROUNDTRIP
360
288
  0
DICTIONARY
  5
285
330
283
100
AcDbDictionary
280
     1
281
     1
  3
ACAD_XREC_ROUNDTRIP
360
286
  0
DICTIONARY
  5
2CC
102
{ACAD_REACTORS
330
C
102
}
330
C
100
AcDbDictionary
281
     1
  0
DICTIONARY
  5
D
102
{ACAD_REACTORS
330
C
102
}
330
C
100
AcDbDictionary
281
     1
  0
DICTIONARY
  5
1A
102
{ACAD_REACTORS
330
C
102
}
330
C
100
AcDbDictionary
281
     1
  3
Layout2
350
26
  3
Model
350
22
  0
DICTIONARY
  5
43
102
{ACAD_REACTORS
330
C
102
}
330
C
100
AcDbDictionary
281
     1
  3
ByBlock
350
45
  3
ByLayer
350
44
  3
Global
350
46
  0
DICTIONARY
  5
6B
102
{ACAD_REACTORS
330
C
102
}
330
C
100
AcDbDictionary
281
     1
  3
Standard
350
6C
  0
DICTIONARY
  5
17
102
{ACAD_REACTORS
330
C
102
}
330
C
100
AcDbDictionary
281
     1
  3
Standard
350
18
  0
DICTIONARY
  5
19
102
{ACAD_REACTORS
330
C
102
}
330
C
100
AcDbDictionary
281
     1
  0
ACDBDICTIONARYWDFLT
  5
E
102
{ACAD_REACTORS
330
C
102
}
330
C
100
AcDbDictionary
281
     1
  3
Normal
350
F
100
AcDbDictionaryWithDefault
340
F
  0
DICTIONARY
  5
47
102
{ACAD_REACTORS
330
C
102
}
330
C
100
AcDbDictionary
281
     1
  3
A0
350
48
  3
A1
350
49
  3
A2
350
4A
  3
A3
350
4B
  3
A4
350
4C
  3
A5
350
4D
  3
A6
350
4E
  3
A7
350
4F
  3
A8
350
50
  3
A9
350
51
  3
B0
350
52
  3
B1
350
53
  3
B2
350
54
  3
B3
350
55
  3
B4
350
56
  3
B5
350
57
  3
B6
350
58
  3
B7
350
59
  3
B8
350
5A
  3
B9
350
5B
  3
C0
350
5C
  3
C1
350
5D
  3
C2
350
5E
  3
C3
350
5F
  3
C4
350
60
  3
C5
350
61
  3
C6
350
62
  3
C7
350
63
  3
C8
350
64
  3
C9
350
65
  3
D0
350
66
  3
D1
350
67
  3
D2
350
68
  0
DICTIONARY
  5
2CD
102
{ACAD_REACTORS
330
C
102
}
330
C
100
AcDbDictionary
281
     1
  0
DICTIONARY
  5
69
102
{ACAD_REACTORS
330
C
102
}
330
C
100
AcDbDictionary
281
     1
  3
Standard
350
6A
  0
DICTIONARY
  5
2A
102
{ACAD_REACTORS
330
C
102
}
330
C
100
AcDbDictionary
281
     1
  3
2dWireframe
350
2F
  3
Basic
350
32
  3
Brighten
350
36
  3
ColorChange
350
3A
  3
Conceptual
350
34
  3
Dim
350
35
  3
EdgeColorOff
350
3D
  3
Facepattern
350
39
  3
Flat
350
2B
  3
FlatWithEdges
350
2C
  3
Gouraud
350
2D
  3
GouraudWithEdges
350
2E
  3
Hidden
350
31
  3
JitterOff
350
3B
  3
Linepattern
350
38
  3
OverhangOff
350
3C
  3
Realistic
350
33
  3
Shaded
350
42
  3
Shaded with edges
350
41
  3
Shades of Gray
350
3E
  3
Sketchy
350
3F
  3
Thicken
350
37
  3
Wireframe
350
30
  3
X-Ray
350
40
  0
XRECORD
  5
2C9
102
{ACAD_REACTORS
330
C
102
}
330
C
100
AcDbXrecord
280
     1
 90
        1
330
6A
  0
DICTIONARY
  5
289
102
{ACAD_REACTORS
330
C
102
}
330
C
100
AcDbDictionary
281
     1
  3
CANNOSCALE
350
28A
  3
CENTEREXE
350
2CE
  3
CENTERLTYPEFILE
350
2CF
  3
CMLEADERSTYLE
350
2CB
  3
CTABLESTYLE
350
2CA
  3
MSLTSCALE
350
28B
  3
XCLIPFRAME
350
28C
  0
XRECORD
  5
288
102
{ACAD_REACTORS
330
287
102
}
330
287
100
AcDbXrecord
280
     1
102
VTR_0.000_0.000_1.000_1.000_VISUALSTYLE
340
2F
102
VTR_0.000_0.000_1.000_1.000_GRIDDISPLAY
 70
     3
102
VTR_0.000_0.000_1.000_1.000_GRIDMAJOR
 70
     5
102
VTR_0.000_0.000_1.000_1.000_DEFAULTLIGHTING
280
     1
102
VTR_0.000_0.000_1.000_1.000_DEFAULTLIGHTINGTYPE
 70
     1
102
VTR_0.000_0.000_1.000_1.000_BRIGHTNESS
141
0.0
102
VTR_0.000_0.000_1.000_1.000_CONTRAST
142
0.0
  0
XRECORD
  5
286
102
{ACAD_REACTORS
330
285
102
}
330
285
100
AcDbXrecord
280
     1
102
VISUALSTYLE
340
2F
102
GRIDDISPLAY
 70
     2
102
GRIDMAJOR
 70
     5
102
DEFAULTLIGHTING
280
     1
102
DEFAULTLIGHTINGTYPE
 70
     1
102
BRIGHTNESS
141
0.0
102
CONTRAST
142
0.0
  0
LAYOUT
  5
26
102
{ACAD_REACTORS
330
1A
102
}
330
1A
100
AcDbPlotSettings
  1

  2
none_device
  4
ISO_A4_(210.00_x_297.00_MM)
  6

 40
7.5
 41
20.0
 42
7.5
 43
20.0
 44
210.0
 45
297.0
 46
0.0
 47
0.0
 48
0.0
 49
0.0
140
0.0
141
0.0
142
1.0
143
1.0
 70
   688
 72
     1
 73
     1
 74
     5
  7

 75
    16
 76
     0
 77
     2
 78
   300
147
1.0
148
0.0
149
0.0
100
AcDbLayout
  1
Layout2
 70
     1
 71
     1
 10
-20.0
 20
-7.5
 11
277.0
 21
202.5
 12
0.0
 22
0.0
 32
0.0
 14
0.0
 24
0.0
 34
0.0
 15
0.0
 25
0.0
 35
0.0
146
0.0
 13
0.0
 23
0.0
 33
0.0
 16
1.0
 26
0.0
 36
0.0
 17
0.0
 27
1.0
 37
0.0
 76
     0
330
23
331
283
  0
LAYOUT
  5
22
102
{ACAD_REACTORS
330
1A
102
}
330
1A
100
AcDbPlotSettings
  1

  2
none_device
  4
Letter_(8.50_x_11.00_Inches)
  6

 40
6.35
 41
6.35
 42
6.35000508
 43
6.35000508
 44
215.9
 45
279.4
 46
0.0
 47
0.0
 48
0.0
 49
0.0
140
0.0
141
0.0
142
1.0
143
1.0
 70
  1712
 72
     1
 73
     0
 74
     0
  7

 75
     0
 76
     0
 77
     2
 78
   300
147
1.0
148
0.0
149
0.0
100
AcDbLayout
  1
Model
 70
     1
 71
     0
 10
0.0
 20
0.0
 11
420.0
 21
297.0
 12
0.0
 22
0.0
 32
0.0
 14
0.0
 24
-13.582174410593
 34
0.0
 15
80.00000000000001
 25
4.000000000000001
 35
0.0
146
0.0
 13
0.0
 23
0.0
 33
0.0
 16
1.0
 26
0.0
 36
0.0
 17
0.0
 27
1.0
 37
0.0
 76
     0
330
1F
331
29
  0
MATERIAL
  5
45
102
{ACAD_REACTORS
330
43
102
}
102
{ACAD_XDICTIONARY
360
2BF
102
}
330
43
100
AcDbMaterial
  1
ByBlock
  0
MATERIAL
  5
44
102
{ACAD_REACTORS
330
43
102
}
102
{ACAD_XDICTIONARY
360
2BD
102
}
330
43
100
AcDbMaterial
  1
ByLayer
  0
MATERIAL
  5
46
102
{ACAD_REACTORS
330
43
102
}
102
{ACAD_XDICTIONARY
360
2C1
102
}
330
43
100
AcDbMaterial
  1
Global
  0
MLEADERSTYLE
  5
6C
102
{ACAD_REACTORS
330
6B
102
}
102
{ACAD_XDICTIONARY
360
2C7
102
}
330
6B
100
AcDbMLeaderStyle
170
     2
171
     1
172
     0
 90
        2
 40
0.0
 41
0.0
173
     1
 91
-1056964608
340
14
 92
       -2
290
     1
 42
2.0
291
     1
 43
8.0
  3
Standard
341
0
 44
4.0
300

342
11
174
     1
178
     6
175
     1
176
     0
 93
-1056964608
 45
4.0
292
     0
297
     0
 46
4.0
343
0
 94
-1056964608
 47
1.0
 49
1.0
140
1.0
293
     1
141
0.0
294
     1
177
     0
142
1.0
295
     0
296
     0
143
3.75
1001
ACAD_MLEADERVER
1070
     2
  0
MLINESTYLE
  5
18
102
{ACAD_REACTORS
330
17
102
}
330
17
100
AcDbMlineStyle
  2
Standard
 70
     0
  3

 62
   256
 51
90.0
 52
90.0
 71
     2
 49
0.5
 62
   256
  6
BYLAYER
 49
-0.5
 62
   256
  6
BYLAYER
  0
ACDBPLACEHOLDER
  5
F
102
{ACAD_REACTORS
330
E
102
}
330
E
  0
SCALE
  5
48
102
{ACAD_REACTORS
330
47
102
}
330
47
100
AcDbScale
 70
     0
300
1:1
140
1.0
141
1.0
290
     1
  0
SCALE
  5
49
102
{ACAD_REACTORS
330
47
102
}
330
47
100
AcDbScale
 70
     0
300
1:2
140
1.0
141
2.0
290
     0
  0
SCALE
  5
4A
102
{ACAD_REACTORS
330
47
102
}
330
47
100
AcDbScale
 70
     0
300
1:4
140
1.0
141
4.0
290
     0
  0
SCALE
  5
4B
102
{ACAD_REACTORS
330
47
102
}
330
47
100
AcDbScale
 70
     0
300
1:5
140
1.0
141
5.0
290
     0
  0
SCALE
  5
4C
102
{ACAD_REACTORS
330
47
102
}
330
47
100
AcDbScale
 70
     0
300
1:8
140
1.0
141
8.0
290
     0
  0
SCALE
  5
4D
102
{ACAD_REACTORS
330
47
102
}
330
47
100
AcDbScale
 70
     0
300
1:10
140
1.0
141
10.0
290
     0
  0
SCALE
  5
4E
102
{ACAD_REACTORS
330
47
102
}
330
47
100
AcDbScale
 70
     0
300
1:16
140
1.0
141
16.0
290
     0
  0
SCALE
  5
4F
102
{ACAD_REACTORS
330
47
102
}
330
47
100
AcDbScale
 70
     0
300
1:20
140
1.0
141
20.0
290
     0
  0
SCALE
  5
50
102
{ACAD_REACTORS
330
47
102
}
330
47
100
AcDbScale
 70
     0
300
1:30
140
1.0
141
30.0
290
     0
  0
SCALE
  5
51
102
{ACAD_REACTORS
330
47
102
}
330
47
100
AcDbScale
 70
     0
300
1:40
140
1.0
141
40.0
290
     0
  0
SCALE
  5
52
102
{ACAD_REACTORS
330
47
102
}
330
47
100
AcDbScale
 70
     0
300
1:50
140
1.0
141
50.0
290
     0
  0
SCALE
  5
53
102
{ACAD_REACTORS
330
47
102
}
330
47
100
AcDbScale
 70
     0
300
1:100
140
1.0
141
100.0
290
     0
  0
SCALE
  5
54
102
{ACAD_REACTORS
330
47
102
}
330
47
100
AcDbScale
 70
     0
300
2:1
140
2.0
141
1.0
290
     0
  0
SCALE
  5
55
102
{ACAD_REACTORS
330
47
102
}
330
47
100
AcDbScale
 70
     0
300
4:1
140
4.0
141
1.0
290
     0
  0
SCALE
  5
56
102
{ACAD_REACTORS
330
47
102
}
330
47
100
AcDbScale
 70
     0
300
8:1
140
8.0
141
1.0
290
     0
  0
SCALE
  5
57
102
{ACAD_REACTORS
330
47
102
}
330
47
100
AcDbScale
 70
     0
300
10:1
140
10.0
141
1.0
290
     0
  0
SCALE
  5
58
102
{ACAD_REACTORS
330
47
102
}
330
47
100
AcDbScale
 70
     0
300
100:1
140
100.0
141
1.0
290
     0
  0
SCALE
  5
59
102
{ACAD_REACTORS
330
47
102
}
330
47
100
AcDbScale
 70
     0
300
1/128" = 1'-0"
140
0.0078125
141
12.0
290
     0
  0
SCALE
  5
5A
102
{ACAD_REACTORS
330
47
102
}
330
47
100
AcDbScale
 70
     0
300
1/64" = 1'-0"
140
0.015625
141
12.0
290
     0
  0
SCALE
  5
5B
102
{ACAD_REACTORS
330
47
102
}
330
47
100
AcDbScale
 70
     0
300
1/32" = 1'-0"
140
0.03125
141
12.0
290
     0
  0
SCALE
  5
5C
102
{ACAD_REACTORS
330
47
102
}
330
47
100
AcDbScale
 70
     0
300
1/16" = 1'-0"
140
0.0625
141
12.0
290
     0
  0
SCALE
  5
5D
102
{ACAD_REACTORS
330
47
102
}
330
47
100
AcDbScale
 70
     0
300
3/32" = 1'-0"
140
0.09375
141
12.0
290
     0
  0
SCALE
  5
5E
102
{ACAD_REACTORS
330
47
102
}
330
47
100
AcDbScale
 70
     0
300
1/8" = 1'-0"
140
0.125
141
12.0
290
     0
  0
SCALE
  5
5F
102
{ACAD_REACTORS
330
47
102
}
330
47
100
AcDbScale
 70
     0
300
3/16" = 1'-0"
140
0.1875
141
12.0
290
     0
  0
SCALE
  5
60
102
{ACAD_REACTORS
330
47
102
}
330
47
100
AcDbScale
 70
     0
300
1/4" = 1'-0"
140
0.25
141
12.0
290
     0
  0
SCALE
  5
61
102
{ACAD_REACTORS
330
47
102
}
330
47
100
AcDbScale
 70
     0
300
3/8" = 1'-0"
140
0.375
141
12.0
290
     0
  0
SCALE
  5
62
102
{ACAD_REACTORS
330
47
102
}
330
47
100
AcDbScale
 70
     0
300
1/2" = 1'-0"
140
0.5
141
12.0
290
     0
  0
SCALE
  5
63
102
{ACAD_REACTORS
330
47
102
}
330
47
100
AcDbScale
 70
     0
300
3/4" = 1'-0"
140
0.75
141
12.0
290
     0
  0
SCALE
  5
64
102
{ACAD_REACTORS
330
47
102
}
330
47
100
AcDbScale
 70
     0
300
1" = 1'-0"
140
1.0
141
12.0
290
     0
  0
SCALE
  5
65
102
{ACAD_REACTORS
330
47
102
}
330
47
100
AcDbScale
 70
     0
300
1-1/2" = 1'-0"
140
1.5
141
12.0
290
     0
  0
SCALE
  5
66
102
{ACAD_REACTORS
330
47
102
}
330
47
100
AcDbScale
 70
     0
300
3" = 1'-0"
140
3.0
141
12.0
290
     0
  0
SCALE
  5
67
102
{ACAD_REACTORS
330
47
102
}
330
47
100
AcDbScale
 70
     0
300
6" = 1'-0"
140
6.0
141
12.0
290
     0
  0
SCALE
  5
68
102
{ACAD_REACTORS
330
47
102
}
330
47
100
AcDbScale
 70
     0
300
1'-0" = 1'-0"
140
12.0
141
12.0
290
     0
  0
TABLESTYLE
  5
6A
102
{ACAD_REACTORS
330
69
102
}
102
{ACAD_XDICTIONARY
360
2C3
102
}
330
69
100
AcDbTableStyle
  3
Standard
 70
     0
 71
     0
 40
0.06
 41
0.06
280
     0
281
     0
  7
Standard
140
4.5
170
     2
 62
     0
 63
   257
283
     0
274
    -2
284
     1
 64
     0
275
    -2
285
     1
 65
     0
276
    -2
286
     1
 66
     0
277
    -2
287
     1
 67
     0
278
    -2
288
     1
 68
     0
279
    -2
289
     1
 69
     0
  7
Standard
140
6.0
170
     5
 62
     0
 63
   257
283
     0
274
    -2
284
     1
 64
     0
275
    -2
285
     1
 65
     0
276
    -2
286
     1
 66
     0
277
    -2
287
     1
 67
     0
278
    -2
288
     1
 68
     0
279
    -2
289
     1
 69
     0
  7
Standard
140
4.5
170
     5
 62
     0
 63
   257
283
     0
274
    -2
284
     1
 64
     0
275
    -2
285
     1
 65
     0
276
    -2
286
     1
 66
     0
277
    -2
287
     1
 67
     0
278
    -2
288
     1
 68
     0
279
    -2
289
     1
 69
     0
  0
VISUALSTYLE
  5
2F
102
{ACAD_REACTORS
330
2A
102
}
102
{ACAD_XDICTIONARY
360
295
102
}
330
2A
100
AcDbVisualStyle
  2
2dWireframe
 70
     4
 71
     0
 72
     2
 73
     0
 90
        0
 40
0.6
 41
30.0
 62
     5
 63
     7
421
 16777215
 74
     1
 91
        4
 64
     7
 65
   257
 75
     1
175
     1
 42
1.0
 92
        0
 66
   257
 43
1.0
 76
     1
 77
     6
 78
     2
 67
     7
 79
     5
170
     0
171
     0
290
     0
174
     0
 93
        1
 44
0.0
173
     0
291
     0
 45
0.0
1001
ACAD
1000
AcDbSavedByObjectVersion
1070
     0
  0
VISUALSTYLE
  5
32
102
{ACAD_REACTORS
330
2A
102
}
102
{ACAD_XDICTIONARY
360
29B
102
}
330
2A
100
AcDbVisualStyle
  2
Basic
 70
     7
 71
     1
 72
     0
 73
     1
 90
        0
 40
0.6
 41
30.0
 62
     5
 63
     7
421
 16777215
 74
     0
 91
        4
 64
     7
 65
   257
 75
     1
175
     1
 42
1.0
 92
        8
 66
     7
 43
1.0
 76
     1
 77
     6
 78
     2
 67
     7
 79
     5
170
     0
171
     0
290
     0
174
     0
 93
        1
 44
0.0
173
     0
291
     1
 45
0.0
1001
ACAD
1000
AcDbSavedByObjectVersion
1070
     0
  0
VISUALSTYLE
  5
36
102
{ACAD_REACTORS
330
2A
102
}
102
{ACAD_XDICTIONARY
360
2A3
102
}
330
2A
100
AcDbVisualStyle
  2
Brighten
 70
    12
 71
     2
 72
     2
 73
     0
 90
        0
 40
0.6
 41
30.0
 62
     5
 63
     7
421
 16777215
 74
     1
 91
        4
 64
     7
 65
   257
 75
     1
175
     1
 42
1.0
 92
        8
 66
     7
 43
1.0
 76
     1
 77
     6
 78
     2
 67
     7
 79
     5
170
     0
171
     0
290
     0
174
     0
 93
        1
 44
50.0
173
     0
291
     1
 45
0.0
1001
ACAD
1000
AcDbSavedByObjectVersion
1070
     0
  0
VISUALSTYLE
  5
3A
102
{ACAD_REACTORS
330
2A
102
}
102
{ACAD_XDICTIONARY
360
2AB
102
}
330
2A
100
AcDbVisualStyle
  2
ColorChange
 70
    16
 71
     2
 72
     2
 73
     3
 90
        0
 40
0.6
 41
30.0
 62
     5
 63
     8
421
  8421504
 74
     1
 91
        4
 64
     7
 65
   257
 75
     1
175
     1
 42
1.0
 92
        8
 66
     8
424
  8421504
 43
1.0
 76
     1
 77
     6
 78
     2
 67
     7
 79
     5
170
     0
171
     0
290
     0
174
     0
 93
        1
 44
0.0
173
     0
291
     1
 45
0.0
1001
ACAD
1000
AcDbSavedByObjectVersion
1070
     0
  0
VISUALSTYLE
  5
34
102
{ACAD_REACTORS
330
2A
102
}
102
{ACAD_XDICTIONARY
360
29F
102
}
330
2A
100
AcDbVisualStyle
  2
Conceptual
 70
     9
 71
     3
 72
     2
 73
     0
 90
        0
 40
0.6
 41
30.0
 62
     5
 63
     7
421
 16777215
 74
     2
 91
        2
 64
     7
 65
   257
 75
     1
175
     1
 42
179.0
 92
        8
 66
     7
 43
1.0
 76
     1
 77
     6
 78
     2
 67
     7
 79
     3
170
     0
171
     0
290
     0
174
     0
 93
        1
 44
0.0
173
     0
291
     0
 45
0.0
1001
ACAD
1000
AcDbSavedByObjectVersion
1070
     0
  0
VISUALSTYLE
  5
35
102
{ACAD_REACTORS
330
2A
102
}
102
{ACAD_XDICTIONARY
360
2A1
102
}
330
2A
100
AcDbVisualStyle
  2
Dim
 70
    11
 71
     2
 72
     2
 73
     0
 90
        0
 40
0.6
 41
30.0
 62
     5
 63
     7
421
 16777215
 74
     1
 91
        4
 64
     7
 65
   257
 75
     1
175
     1
 42
1.0
 92
        8
 66
     7
 43
1.0
 76
     1
 77
     6
 78
     2
 67
     7
 79
     5
170
     0
171
     0
290
     0
174
     0
 93
        1
 44
-50.0
173
     0
291
     1
 45
0.0
1001
ACAD
1000
AcDbSavedByObjectVersion
1070
     0
  0
VISUALSTYLE
  5
3D
102
{ACAD_REACTORS
330
2A
102
}
102
{ACAD_XDICTIONARY
360
2B1
102
}
330
2A
100
AcDbVisualStyle
  2
EdgeColorOff
 70
    22
 71
     2
 72
     2
 73
     0
 90
        0
 40
0.6
 41
30.0
 62
     5
 63
     7
421
 16777215
 74
     1
 91
        4
 64
     7
 65
   257
 75
     1
175
     1
 42
1.0
 92
        8
 66
     7
 43
1.0
 76
     1
 77
     6
 78
     2
 67
     7
 79
     5
170
     0
171
     0
290
     0
174
     0
 93
        1
 44
0.0
173
     0
291
     1
 45
0.0
1001
ACAD
1000
AcDbSavedByObjectVersion
1070
     0
  0
VISUALSTYLE
  5
39
102
{ACAD_REACTORS
330
2A
102
}
102
{ACAD_XDICTIONARY
360
2A9
102
}
330
2A
100
AcDbVisualStyle
  2
Facepattern
 70
    15
 71
     2
 72
     2
 73
     0
 90
        0
 40
0.6
 41
30.0
 62
     5
 63
     7
421
 16777215
 74
     1
 91
        4
 64
     7
 65
   257
 75
     1
175
     1
 42
1.0
 92
        8
 66
     7
 43
1.0
 76
     1
 77
     6
 78
     2
 67
     7
 79
     5
170
     0
171
     0
290
     0
174
     0
 93
        1
 44
0.0
173
     0
291
     1
 45
0.0
1001
ACAD
1000
AcDbSavedByObjectVersion
1070
     0
  0
VISUALSTYLE
  5
2B
102
{ACAD_REACTORS
330
2A
102
}
102
{ACAD_XDICTIONARY
360
28D
102
}
330
2A
100
AcDbVisualStyle
  2
Flat
 70
     0
 71
     2
 72
     1
 73
     1
 90
        2
 40
0.6
 41
30.0
 62
     5
 63
     7
421
 16777215
 74
     0
 91
        0
 64
     7
 65
   257
 75
     1
175
     1
 42
1.0
 92
        8
 66
     7
 43
1.0
 76
     1
 77
     6
 78
     2
 67
     7
 79
     5
170
     0
171
     0
290
     0
174
     0
 93
       13
 44
0.0
173
     0
291
     1
 45
0.0
1001
ACAD
1000
AcDbSavedByObjectVersion
1070
     0
  0
VISUALSTYLE
  5
2C
102
{ACAD_REACTORS
330
2A
102
}
102
{ACAD_XDICTIONARY
360
28F
102
}
330
2A
100
AcDbVisualStyle
  2
FlatWithEdges
 70
     1
 71
     2
 72
     1
 73
     1
 90
        2
 40
0.6
 41
30.0
 62
     5
 63
     7
421
 16777215
 74
     1
 91
        0
 64
     7
 65
   257
 75
     1
175
     1
 42
1.0
 92
        0
 66
   257
 43
1.0
 76
     1
 77
     6
 78
     2
 67
     7
 79
     5
170
     0
171
     0
290
     0
174
     0
 93
       13
 44
0.0
173
     0
291
     1
 45
0.0
1001
ACAD
1000
AcDbSavedByObjectVersion
1070
     0
  0
VISUALSTYLE
  5
2D
102
{ACAD_REACTORS
330
2A
102
}
102
{ACAD_XDICTIONARY
360
291
102
}
330
2A
100
AcDbVisualStyle
  2
Gouraud
 70
     2
 71
     2
 72
     2
 73
     1
 90
        2
 40
0.6
 41
30.0
 62
     5
 63
     7
421
 16777215
 74
     0
 91
        0
 64
     7
 65
   257
 75
     1
175
     1
 42
1.0
 92
        0
 66
     7
 43
1.0
 76
     1
 77
     6
 78
     2
 67
     7
 79
     5
170
     0
171
     0
290
     0
174
     0
 93
       13
 44
0.0
173
     0
291
     1
 45
0.0
1001
ACAD
1000
AcDbSavedByObjectVersion
1070
     0
  0
VISUALSTYLE
  5
2E
102
{ACAD_REACTORS
330
2A
102
}
102
{ACAD_XDICTIONARY
360
293
102
}
330
2A
100
AcDbVisualStyle
  2
GouraudWithEdges
 70
     3
 71
     2
 72
     2
 73
     1
 90
        2
 40
0.6
 41
30.0
 62
     5
 63
     7
421
 16777215
 74
     1
 91
        0
 64
     7
 65
   257
 75
     1
175
     1
 42
1.0
 92
        0
 66
   257
 43
1.0
 76
     1
 77
     6
 78
     2
 67
     7
 79
     5
170
     0
171
     0
290
     0
174
     0
 93
       13
 44
0.0
173
     0
291
     1
 45
0.0
1001
ACAD
1000
AcDbSavedByObjectVersion
1070
     0
  0
VISUALSTYLE
  5
31
102
{ACAD_REACTORS
330
2A
102
}
102
{ACAD_XDICTIONARY
360
299
102
}
330
2A
100
AcDbVisualStyle
  2
Hidden
 70
     6
 71
     1
 72
     2
 73
     2
 90
        0
 40
0.6
 41
30.0
 62
     5
 63
     7
421
 16777215
 74
     2
 91
        2
 64
     7
 65
   257
 75
     2
175
     1
 42
40.0
 92
        0
 66
   257
 43
1.0
 76
     1
 77
     6
 78
     2
 67
     7
 79
     3
170
     0
171
     0
290
     0
174
     0
 93
        1
 44
0.0
173
     0
291
     0
 45
0.0
1001
ACAD
1000
AcDbSavedByObjectVersion
1070
     0
  0
VISUALSTYLE
  5
3B
102
{ACAD_REACTORS
330
2A
102
}
102
{ACAD_XDICTIONARY
360
2AD
102
}
330
2A
100
AcDbVisualStyle
  2
JitterOff
 70
    20
 71
     2
 72
     2
 73
     0
 90
        0
 40
0.6
 41
30.0
 62
     5
 63
     7
421
 16777215
 74
     1
 91
        4
 64
     7
 65
   257
 75
     1
175
     1
 42
1.0
 92
       10
 66
     7
 43
1.0
 76
     1
 77
     6
 78
     2
 67
     7
 79
     5
170
     0
171
     0
290
     0
174
     0
 93
        1
 44
0.0
173
     0
291
     1
 45
0.0
1001
ACAD
1000
AcDbSavedByObjectVersion
1070
     0
  0
VISUALSTYLE
  5
38
102
{ACAD_REACTORS
330
2A
102
}
102
{ACAD_XDICTIONARY
360
2A7
102
}
330
2A
100
AcDbVisualStyle
  2
Linepattern
 70
    14
 71
     2
 72
     2
 73
     0
 90
        0
 40
0.6
 41
30.0
 62
     5
 63
     7
421
 16777215
 74
     1
 91
        4
 64
     7
 65
   257
 75
     7
175
     7
 42
1.0
 92
        8
 66
     7
 43
1.0
 76
     1
 77
     6
 78
     2
 67
     7
 79
     5
170
     0
171
     0
290
     0
174
     0
 93
        1
 44
0.0
173
     0
291
     1
 45
0.0
1001
ACAD
1000
AcDbSavedByObjectVersion
1070
     0
  0
VISUALSTYLE
  5
3C
102
{ACAD_REACTORS
330
2A
102
}
102
{ACAD_XDICTIONARY
360
2AF
102
}
330
2A
100
AcDbVisualStyle
  2
OverhangOff
 70
    21
 71
     2
 72
     2
 73
     0
 90
        0
 40
0.6
 41
30.0
 62
     5
 63
     7
421
 16777215
 74
     1
 91
        4
 64
     7
 65
   257
 75
     1
175
     1
 42
1.0
 92
        9
 66
     7
 43
1.0
 76
     1
 77
     6
 78
     2
 67
     7
 79
     5
170
     0
171
     0
290
     0
174
     0
 93
        1
 44
0.0
173
     0
291
     1
 45
0.0
1001
ACAD
1000
AcDbSavedByObjectVersion
1070
     0
  0
VISUALSTYLE
  5
33
102
{ACAD_REACTORS
330
2A
102
}
102
{ACAD_XDICTIONARY
360
29D
102
}
330
2A
100
AcDbVisualStyle
  2
Realistic
 70
     8
 71
     2
 72
     3
 73
     0
 90
        2
 40
0.6
 41
30.0
 62
     5
 63
     7
421
 16777215
 74
     0
 91
        0
 64
     7
 65
   257
 75
     1
175
     1
 42
1.0
 92
        8
 66
   257
 43
1.0
 76
     1
 77
     6
 78
     2
 67
     7
 79
     3
170
     0
171
     0
290
     0
174
     0
 93
       13
 44
0.0
173
     0
291
     0
 45
0.0
1001
ACAD
1000
AcDbSavedByObjectVersion
1070
     0
  0
VISUALSTYLE
  5
42
102
{ACAD_REACTORS
330
2A
102
}
102
{ACAD_XDICTIONARY
360
2BB
102
}
330
2A
100
AcDbVisualStyle
  2
Shaded
 70
    27
 71
     2
 72
     2
 73
     1
 90
        2
 40
0.6
 41
30.0
 62
     5
 63
     7
421
 16777215
 74
     0
 91
        4
 64
     7
 65
   257
 75
     1
175
     1
 42
1.0
 92
        8
 66
   257
 43
1.0
 76
     1
 77
     6
 78
     2
 67
     8
425
  7895160
 79
     3
170
     0
171
     0
290
     0
174
     0
 93
        5
 44
0.0
173
     0
291
     0
 45
0.0
1001
ACAD
1000
AcDbSavedByObjectVersion
1070
     0
  0
VISUALSTYLE
  5
41
102
{ACAD_REACTORS
330
2A
102
}
102
{ACAD_XDICTIONARY
360
2B9
102
}
330
2A
100
AcDbVisualStyle
  2
Shaded with edges
 70
    26
 71
     2
 72
     2
 73
     1
 90
        2
 40
0.6
 41
30.0
 62
     5
 63
     7
421
 16777215
 74
     1
 91
       10
 64
     7
 65
   257
 75
     2
175
     1
 42
1.0
 92
        8
 66
   257
 43
1.0
 76
     1
 77
     6
 78
     2
 67
     7
 79
     3
170
     0
171
     0
290
     0
174
     0
 93
        5
 44
0.0
173
     0
291
     0
 45
0.0
1001
ACAD
1000
AcDbSavedByObjectVersion
1070
     0
  0
VISUALSTYLE
  5
3E
102
{ACAD_REACTORS
330
2A
102
}
102
{ACAD_XDICTIONARY
360
2B3
102
}
330
2A
100
AcDbVisualStyle
  2
Shades of Gray
 70
    23
 71
     2
 72
     2
 73
     3
 90
        0
 40
0.6
 41
30.0
 62
     5
 63
     7
421
 16777215
 74
     2
 91
        2
 64
     7
 65
     7
 75
     1
175
     1
 42
40.0
 92
        8
 66
     7
 43
1.0
 76
     1
 77
     6
 78
     2
 67
     7
 79
     3
170
     0
171
     0
290
     0
174
     0
 93
        1
 44
0.0
173
     0
291
     0
 45
0.0
1001
ACAD
1000
AcDbSavedByObjectVersion
1070
     0
  0
VISUALSTYLE
  5
3F
102
{ACAD_REACTORS
330
2A
102
}
102
{ACAD_XDICTIONARY
360
2B5
102
}
330
2A
100
AcDbVisualStyle
  2
Sketchy
 70
    24
 71
     1
 72
     2
 73
     2
 90
        0
 40
0.6
 41
30.0
 62
     5
 63
     7
421
 16777215
 74
     2
 91
        2
 64
     7
 65
     7
 75
     1
175
     1
 42
40.0
 92
       11
 66
     7
 43
1.0
 76
     1
 77
     6
 78
     2
 67
     7
 79
     6
170
     0
171
     0
290
     0
174
     0
 93
        1
 44
0.0
173
     0
291
     0
 45
0.0
1001
ACAD
1000
AcDbSavedByObjectVersion
1070
     0
  0
VISUALSTYLE
  5
37
102
{ACAD_REACTORS
330
2A
102
}
102
{ACAD_XDICTIONARY
360
2A5
102
}
330
2A
100
AcDbVisualStyle
  2
Thicken
 70
    13
 71
     2
 72
     2
 73
     0
 90
        0
 40
0.6
 41
30.0
 62
     5
 63
     7
421
 16777215
 74
     1
 91
        4
 64
     7
 65
   257
 75
     1
175
     1
 42
1.0
 92
       12
 66
     7
 43
1.0
 76
     1
 77
     6
 78
     2
 67
     7
 79
     5
170
     0
171
     0
290
     0
174
     0
 93
        1
 44
0.0
173
     0
291
     1
 45
0.0
1001
ACAD
1000
AcDbSavedByObjectVersion
1070
     0
  0
VISUALSTYLE
  5
30
102
{ACAD_REACTORS
330
2A
102
}
102
{ACAD_XDICTIONARY
360
297
102
}
330
2A
100
AcDbVisualStyle
  2
Wireframe
 70
     5
 71
     0
 72
     2
 73
     0
 90
        0
 40
0.6
 41
30.0
 62
     5
 63
     7
421
 16777215
 74
     1
 91
        4
 64
     7
 65
   257
 75
     1
175
     1
 42
1.0
 92
        0
 66
   257
 43
1.0
 76
     1
 77
     6
 78
     2
 67
     7
 79
     3
170
     0
171
     0
290
     0
174
     0
 93
        1
 44
0.0
173
     0
291
     0
 45
0.0
1001
ACAD
1000
AcDbSavedByObjectVersion
1070
     0
  0
VISUALSTYLE
  5
40
102
{ACAD_REACTORS
330
2A
102
}
102
{ACAD_XDICTIONARY
360
2B7
102
}
330
2A
100
AcDbVisualStyle
  2
X-Ray
 70
    25
 71
     2
 72
     2
 73
     1
 90
        1
 40
0.5
 41
30.0
 62
     5
 63
     7
421
 16777215
 74
     1
 91
        0
 64
     7
 65
   257
 75
     1
175
     1
 42
1.0
 92
        8
 66
     7
 43
1.0
 76
     1
 77
     6
 78
     2
 67
     7
 79
     3
170
     0
171
     0
290
     0
174
     0
 93
       13
 44
0.0
173
     0
291
     0
 45
0.0
1001
ACAD
1000
AcDbSavedByObjectVersion
1070
     0
  0
DICTIONARYVAR
  5
28A
102
{ACAD_REACTORS
330
289
102
}
330
289
100
DictionaryVariables
280
     0
  1
1:1
  0
DICTIONARYVAR
  5
2CE
102
{ACAD_REACTORS
330
289
102
}
330
289
100
DictionaryVariables
280
     0
  1
3.500000
  0
DICTIONARYVAR
  5
2CF
102
{ACAD_REACTORS
330
289
102
}
330
289
100
DictionaryVariables
280
     0
  1
acadiso.lin
  0
DICTIONARYVAR
  5
2CB
102
{ACAD_REACTORS
330
289
102
}
330
289
100
DictionaryVariables
280
     0
  1
Standard
  0
DICTIONARYVAR
  5
2CA
102
{ACAD_REACTORS
330
289
102
}
330
289
100
DictionaryVariables
280
     0
  1
Standard
  0
DICTIONARYVAR
  5
28B
102
{ACAD_REACTORS
330
289
102
}
330
289
100
DictionaryVariables
280
     0
  1
1
  0
DICTIONARYVAR
  5
28C
102
{ACAD_REACTORS
330
289
102
}
330
289
100
DictionaryVariables
280
     0
  1
2
  0
DICTIONARY
  5
2BF
330
45
100
AcDbDictionary
280
     1
281
     1
  3
ACAD_XREC_ROUNDTRIP
360
2C0
  0
DICTIONARY
  5
2BD
330
44
100
AcDbDictionary
280
     1
281
     1
  3
ACAD_XREC_ROUNDTRIP
360
2BE
  0
DICTIONARY
  5
2C1
330
46
100
AcDbDictionary
280
     1
281
     1
  3
ACAD_XREC_ROUNDTRIP
360
2C2
  0
DICTIONARY
  5
2C7
330
6C
100
AcDbDictionary
280
     1
281
     1
  3
ACAD_XREC_ROUNDTRIP
360
2C8
  0
DICTIONARY
  5
2C3
330
6A
100
AcDbDictionary
280
     1
281
     1
  3
ACAD_ROUNDTRIP_2008_TABLESTYLE_CELLSTYLEMAP
360
2C5
  3
ACAD_XREC_ROUNDTRIP
360
2C4
  0
DICTIONARY
  5
295
330
2F
100
AcDbDictionary
280
     1
281
     1
  3
ACAD_XREC_ROUNDTRIP
360
296
  0
DICTIONARY
  5
29B
330
32
100
AcDbDictionary
280
     1
281
     1
  3
ACAD_XREC_ROUNDTRIP
360
29C
  0
DICTIONARY
  5
2A3
330
36
100
AcDbDictionary
280
     1
281
     1
  3
ACAD_XREC_ROUNDTRIP
360
2A4
  0
DICTIONARY
  5
2AB
330
3A
100
AcDbDictionary
280
     1
281
     1
  3
ACAD_XREC_ROUNDTRIP
360
2AC
  0
DICTIONARY
  5
29F
330
34
100
AcDbDictionary
280
     1
281
     1
  3
ACAD_XREC_ROUNDTRIP
360
2A0
  0
DICTIONARY
  5
2A1
330
35
100
AcDbDictionary
280
     1
281
     1
  3
ACAD_XREC_ROUNDTRIP
360
2A2
  0
DICTIONARY
  5
2B1
330
3D
100
AcDbDictionary
280
     1
281
     1
  3
ACAD_XREC_ROUNDTRIP
360
2B2
  0
DICTIONARY
  5
2A9
330
39
100
AcDbDictionary
280
     1
281
     1
  3
ACAD_XREC_ROUNDTRIP
360
2AA
  0
DICTIONARY
  5
28D
330
2B
100
AcDbDictionary
280
     1
281
     1
  3
ACAD_XREC_ROUNDTRIP
360
28E
  0
DICTIONARY
  5
28F
330
2C
100
AcDbDictionary
280
     1
281
     1
  3
ACAD_XREC_ROUNDTRIP
360
290
  0
DICTIONARY
  5
291
330
2D
100
AcDbDictionary
280
     1
281
     1
  3
ACAD_XREC_ROUNDTRIP
360
292
  0
DICTIONARY
  5
293
330
2E
100
AcDbDictionary
280
     1
281
     1
  3
ACAD_XREC_ROUNDTRIP
360
294
  0
DICTIONARY
  5
299
330
31
100
AcDbDictionary
280
     1
281
     1
  3
ACAD_XREC_ROUNDTRIP
360
29A
  0
DICTIONARY
  5
2AD
330
3B
100
AcDbDictionary
280
     1
281
     1
  3
ACAD_XREC_ROUNDTRIP
360
2AE
  0
DICTIONARY
  5
2A7
330
38
100
AcDbDictionary
280
     1
281
     1
  3
ACAD_XREC_ROUNDTRIP
360
2A8
  0
DICTIONARY
  5
2AF
330
3C
100
AcDbDictionary
280
     1
281
     1
  3
ACAD_XREC_ROUNDTRIP
360
2B0
  0
DICTIONARY
  5
29D
330
33
100
AcDbDictionary
280
     1
281
     1
  3
ACAD_XREC_ROUNDTRIP
360
29E
  0
DICTIONARY
  5
2BB
330
42
100
AcDbDictionary
280
     1
281
     1
  3
ACAD_XREC_ROUNDTRIP
360
2BC
  0
DICTIONARY
  5
2B9
330
41
100
AcDbDictionary
280
     1
281
     1
  3
ACAD_XREC_ROUNDTRIP
360
2BA
  0
DICTIONARY
  5
2B3
330
3E
100
AcDbDictionary
280
     1
281
     1
  3
ACAD_XREC_ROUNDTRIP
360
2B4
  0
DICTIONARY
  5
2B5
330
3F
100
AcDbDictionary
280
     1
281
     1
  3
ACAD_XREC_ROUNDTRIP
360
2B6
  0
DICTIONARY
  5
2A5
330
37
100
AcDbDictionary
280
     1
281
     1
  3
ACAD_XREC_ROUNDTRIP
360
2A6
  0
DICTIONARY
  5
297
330
30
100
AcDbDictionary
280
     1
281
     1
  3
ACAD_XREC_ROUNDTRIP
360
298
  0
DICTIONARY
  5
2B7
330
40
100
AcDbDictionary
280
     1
281
     1
  3
ACAD_XREC_ROUNDTRIP
360
2B8
  0
XRECORD
  5
2C0
102
{ACAD_REACTORS
330
2BF
102
}
330
2BF
100
AcDbXrecord
280
     1
102
MATERIAL
148
0.0
149
0.0
149
0.0
 93
        0
 94
      127
282
     0
 72
     1
 77
     1
171
     1
175
     1
179
     1
273
     0
  0
XRECORD
  5
2BE
102
{ACAD_REACTORS
330
2BD
102
}
330
2BD
100
AcDbXrecord
280
     1
102
MATERIAL
148
0.0
149
0.0
149
0.0
 93
        0
 94
      127
282
     0
 72
     1
 77
     1
171
     1
175
     1
179
     1
273
     0
  0
XRECORD
  5
2C2
102
{ACAD_REACTORS
330
2C1
102
}
330
2C1
100
AcDbXrecord
280
     1
102
MATERIAL
148
0.0
149
0.0
149
0.0
 93
        0
 94
      127
282
     0
 72
     1
 77
     1
171
     1
175
     1
179
     1
273
     0
  0
XRECORD
  5
2C8
102
{ACAD_REACTORS
330
2C7
102
}
330
2C7
100
AcDbXrecord
280
     1
102
ACAD_ROUNDTRIP_2010_MLEADER_STYLE
  0
CELLSTYLEMAP
  5
2C5
102
{ACAD_REACTORS
330
2C3
102
}
330
2C3
100
AcDbCellStyleMap
 90
        3
300
CELLSTYLE
  1
TABLEFORMAT_BEGIN
 90
        5
170
     1
 91
        0
 92
    32768
 62
   257
 93
        1
300
CONTENTFORMAT
  1
CONTENTFORMAT_BEGIN
 90
        0
 91
        0
 92
        4
 93
        0
300

 40
0.0
140
1.0
 94
        5
 62
     0
340
11
144
6.0
309
CONTENTFORMAT_END
171
     1
301
MARGIN
  1
CELLMARGIN_BEGIN
 40
1.5
 40
1.5
 40
1.5
 40
1.5
 40
1.5
 40
1.5
309
CELLMARGIN_END
 94
        6
 95
        1
302
GRIDFORMAT
  1
GRIDFORMAT_BEGIN
 90
        0
 91
        1
 62
     0
 92
       -2
340
14
 93
        0
 40
0.045
309
GRIDFORMAT_END
 95
        2
302
GRIDFORMAT
  1
GRIDFORMAT_BEGIN
 90
        0
 91
        1
 62
     0
 92
       -2
340
14
 93
        0
 40
0.045
309
GRIDFORMAT_END
 95
        4
302
GRIDFORMAT
  1
GRIDFORMAT_BEGIN
 90
        0
 91
        1
 62
     0
 92
       -2
340
14
 93
        0
 40
0.045
309
GRIDFORMAT_END
 95
        8
302
GRIDFORMAT
  1
GRIDFORMAT_BEGIN
 90
        0
 91
        1
 62
     0
 92
       -2
340
14
 93
        0
 40
0.045
309
GRIDFORMAT_END
 95
       16
302
GRIDFORMAT
  1
GRIDFORMAT_BEGIN
 90
        0
 91
        1
 62
     0
 92
       -2
340
14
 93
        0
 40
0.045
309
GRIDFORMAT_END
 95
       32
302
GRIDFORMAT
  1
GRIDFORMAT_BEGIN
 90
        0
 91
        1
 62
     0
 92
       -2
340
14
 93
        0
 40
0.045
309
GRIDFORMAT_END
309
TABLEFORMAT_END
  1
CELLSTYLE_BEGIN
 90
        1
 91
        1
300
_TITLE
309
CELLSTYLE_END
300
CELLSTYLE
  1
TABLEFORMAT_BEGIN
 90
        5
170
     1
 91
        0
 92
        0
 62
   257
 93
        1
300
CONTENTFORMAT
  1
CONTENTFORMAT_BEGIN
 90
        0
 91
        0
 92
        4
 93
        0
300

 40
0.0
140
1.0
 94
        5
 62
     0
340
11
144
4.5
309
CONTENTFORMAT_END
171
     1
301
MARGIN
  1
CELLMARGIN_BEGIN
 40
1.5
 40
1.5
 40
1.5
 40
1.5
 40
1.5
 40
1.5
309
CELLMARGIN_END
 94
        6
 95
        1
302
GRIDFORMAT
  1
GRIDFORMAT_BEGIN
 90
        0
 91
        1
 62
     0
 92
       -2
340
14
 93
        0
 40
0.045
309
GRIDFORMAT_END
 95
        2
302
GRIDFORMAT
  1
GRIDFORMAT_BEGIN
 90
        0
 91
        1
 62
     0
 92
       -2
340
14
 93
        0
 40
0.045
309
GRIDFORMAT_END
 95
        4
302
GRIDFORMAT
  1
GRIDFORMAT_BEGIN
 90
        0
 91
        1
 62
     0
 92
       -2
340
14
 93
        0
 40
0.045
309
GRIDFORMAT_END
 95
        8
302
GRIDFORMAT
  1
GRIDFORMAT_BEGIN
 90
        0
 91
        1
 62
     0
 92
       -2
340
14
 93
        0
 40
0.045
309
GRIDFORMAT_END
 95
       16
302
GRIDFORMAT
  1
GRIDFORMAT_BEGIN
 90
        0
 91
        1
 62
     0
 92
       -2
340
14
 93
        0
 40
0.045
309
GRIDFORMAT_END
 95
       32
302
GRIDFORMAT
  1
GRIDFORMAT_BEGIN
 90
        0
 91
        1
 62
     0
 92
       -2
340
14
 93
        0
 40
0.045
309
GRIDFORMAT_END
309
TABLEFORMAT_END
  1
CELLSTYLE_BEGIN
 90
        2
 91
        1
300
_HEADER
309
CELLSTYLE_END
300
CELLSTYLE
  1
TABLEFORMAT_BEGIN
 90
        5
170
     1
 91
        0
 92
        0
 62
   257
 93
        1
300
CONTENTFORMAT
  1
CONTENTFORMAT_BEGIN
 90
        0
 91
        0
 92
        4
 93
        0
300

 40
0.0
140
1.0
 94
        2
 62
     0
340
11
144
4.5
309
CONTENTFORMAT_END
171
     1
301
MARGIN
  1
CELLMARGIN_BEGIN
 40
1.5
 40
1.5
 40
1.5
 40
1.5
 40
1.5
 40
1.5
309
CELLMARGIN_END
 94
        6
 95
        1
302
GRIDFORMAT
  1
GRIDFORMAT_BEGIN
 90
        0
 91
        1
 62
     0
 92
       -2
340
14
 93
        0
 40
0.045
309
GRIDFORMAT_END
 95
        2
302
GRIDFORMAT
  1
GRIDFORMAT_BEGIN
 90
        0
 91
        1
 62
     0
 92
       -2
340
14
 93
        0
 40
0.045
309
GRIDFORMAT_END
 95
        4
302
GRIDFORMAT
  1
GRIDFORMAT_BEGIN
 90
        0
 91
        1
 62
     0
 92
       -2
340
14
 93
        0
 40
0.045
309
GRIDFORMAT_END
 95
        8
302
GRIDFORMAT
  1
GRIDFORMAT_BEGIN
 90
        0
 91
        1
 62
     0
 92
       -2
340
14
 93
        0
 40
0.045
309
GRIDFORMAT_END
 95
       16
302
GRIDFORMAT
  1
GRIDFORMAT_BEGIN
 90
        0
 91
        1
 62
     0
 92
       -2
340
14
 93
        0
 40
0.045
309
GRIDFORMAT_END
 95
       32
302
GRIDFORMAT
  1
GRIDFORMAT_BEGIN
 90
        0
 91
        1
 62
     0
 92
       -2
340
14
 93
        0
 40
0.045
309
GRIDFORMAT_END
309
TABLEFORMAT_END
  1
CELLSTYLE_BEGIN
 90
        3
 91
        2
300
_DATA
309
CELLSTYLE_END
  0
XRECORD
  5
2C4
102
{ACAD_REACTORS
330
2C3
102
}
330
2C3
100
AcDbXrecord
280
     1
102
ACAD_ROUNDTRIP_PRE2007_TABLESTYLE
 90
        4
 91
        0
  1

 92
        4
 93
        0
  2

 94
        4
 95
        0
  3

  0
XRECORD
  5
296
102
{ACAD_REACTORS
330
295
102
}
330
295
100
AcDbXrecord
280
     1
102
RTVSPropertyOp0
 70
     1
102
RTVSPropertyOp1
 70
     1
102
RTVSPropertyOp2
 70
     1
102
RTVSPropertyOp3
 70
     1
102
RTVSPropertyOp4
 70
     1
102
RTVSPropertyOp5
 70
     1
102
RTVSPropertyOp6
 70
     1
102
RTVSPropertyOp7
 70
     1
102
RTVSPropertyOp8
 70
     1
102
RTVSPropertyOp9
 70
     1
102
RTVSPropertyOp10
 70
     1
102
RTVSPropertyOp11
 70
     1
102
RTVSPropertyOp12
 70
     1
102
RTVSPropertyOp13
 70
     1
102
RTVSPropertyOp14
 70
     1
102
RTVSPropertyOp15
 70
     1
102
RTVSPropertyOp16
 70
     1
102
RTVSPropertyOp17
 70
     1
102
RTVSPropertyOp18
 70
     1
102
RTVSPropertyOp19
 70
     1
102
RTVSPropertyOp20
 70
     1
102
RTVSPropertyOp21
 70
     1
102
RTVSPropertyOp22
 70
     1
102
RTVSPropertyOp23
 70
     1
102
RTVSPropertyOp24
 70
     1
102
RTVSPropertyOp25
 70
     1
102
RTVSPropertyOp26
 70
     1
102
RTVSPropertyOp27
 70
     1
102
RTVSPropertyOp28
 70
     1
102
RTVSPropertyOp29
 70
     1
102
RTVSPropertyOp30
 70
     1
102
RTVSPropertyOp31
 70
     1
102
RTVSPropertyOp32
 70
     1
102
RTVSPropertyOp33
 70
     1
102
RTVSPropertyOp34
 70
     1
102
RTVSPropertyOp35
 70
     1
102
RTVSPropertyOp36
 70
     1
102
RTVSPropertyOp37
 70
     1
102
RTVSPropertyOp38
 70
     1
102
RTVSPropertyOp39
 70
     1
102
RTVSPropertyOp40
 70
     1
102
RTVSPropertyOp41
 70
     1
102
RTVSPropertyOp42
 70
     1
102
RTVSPropertyOp43
 70
     1
102
RTVSPropertyOp44
 70
     1
102
RTVSPropertyOp45
 70
     1
102
RTVSPropertyOp46
 70
     1
102
RTVSPropertyOp47
 70
     1
102
RTVSPropertyOp48
 70
     1
102
RTVSPropertyOp49
 70
     1
102
RTVSPropertyOp50
 70
     1
102
RTVSPropertyOp51
 70
     0
102
RTVSPropertyOp52
 70
     0
102
RTVSPropertyOp53
 70
     1
102
RTVSPropertyOp54
 70
     1
102
RTVSPropertyOp55
 70
     1
102
RTVSPropertyOp56
 70
     1
102
RTVSPropertyOp57
 70
     1
102
RTVSPost2010Prop28
280
     1
102
RTVSPost2010PropOp28
 70
     1
102
RTVSPost2010Prop29
280
     1
102
RTVSPost2010PropOp29
 70
     1
102
RTVSPost2010Prop30
280
     0
102
RTVSPost2010PropOp30
 70
     1
102
RTVSPost2010Prop31
280
     0
102
RTVSPost2010PropOp31
 70
     1
102
RTVSPost2010Prop32
280
     0
102
RTVSPost2010PropOp32
 70
     1
102
RTVSPost2010Prop33
280
     0
102
RTVSPost2010PropOp33
 70
     1
102
RTVSPost2010Prop34
280
     0
102
RTVSPost2010PropOp34
 70
     1
102
RTVSPost2010Prop35
280
     0
102
RTVSPost2010PropOp35
 70
     1
102
RTVSPost2010Prop36
280
     0
102
RTVSPost2010PropOp36
 70
     1
102
RTVSPost2010Prop37
 90
       50
102
RTVSPost2010PropOp37
 70
     1
102
RTVSPost2010Prop38
140
0.0
102
RTVSPost2010PropOp38
 70
     1
102
RTVSPost2010Prop39
140
1.0
102
RTVSPost2010PropOp39
 70
     1
102
RTVSPost2010Prop40
 90
        0
102
RTVSPost2010PropOp40
 70
     1
102
RTVSPost2010Prop41ColorIndex
 90
       18
102
RTVSPost2010Prop41ColorRGB
 90
        0
102
RTVSPost2010PropOp41
 70
     1
102
RTVSPost2010Prop42
 90
       50
102
RTVSPost2010PropOp42
 70
     1
102
RTVSPost2010Prop43
 90
        3
102
RTVSPost2010PropOp43
 70
     1
102
RTVSPost2010Prop44ColorIndex
 90
        5
102
RTVSPost2010Prop44ColorRGB
 90
      255
102
RTVSPost2010PropOp44
 70
     1
102
RTVSPost2010Prop45
280
     0
102
RTVSPost2010PropOp45
 70
     1
102
RTVSPost2010Prop46
 90
       50
102
RTVSPost2010PropOp46
 70
     1
102
RTVSPost2010Prop47
 90
       50
102
RTVSPost2010PropOp47
 70
     1
102
RTVSPost2010Prop48
 90
       50
102
RTVSPost2010PropOp48
 70
     1
102
RTVSPost2010Prop49
280
     0
102
RTVSPost2010PropOp49
 70
     1
102
RTVSPost2010Prop50
 90
       50
102
RTVSPost2010PropOp50
 70
     1
102
RTVSPost2010Prop51ColorIndex
 90
      256
102
RTVSPost2010Prop51ColorRGB
 90
-16777216
102
RTVSPost2010PropOp51
 70
     0
102
RTVSPost2010Prop52
140
1.0
102
RTVSPost2010PropOp52
 70
     0
102
RTVSPost2010Prop53
 90
        2
102
RTVSPost2010PropOp53
 70
     1
102
RTVSPost2010Prop54
  1
strokes_ogs.tif
102
RTVSPost2010PropOp54
 70
     1
102
RTVSPost2010Prop55
280
     0
102
RTVSPost2010PropOp55
 70
     1
102
RTVSPost2010Prop56
140
1.0
102
RTVSPost2010PropOp56
 70
     1
102
RTVSPost2010Prop57
140
1.0
102
RTVSPost2010PropOp57
 70
     1
  0
XRECORD
  5
29C
102
{ACAD_REACTORS
330
29B
102
}
330
29B
100
AcDbXrecord
280
     1
102
RTVSPropertyOp0
 70
     1
102
RTVSPropertyOp1
 70
     1
102
RTVSPropertyOp2
 70
     1
102
RTVSPropertyOp3
 70
     1
102
RTVSPropertyOp4
 70
     1
102
RTVSPropertyOp5
 70
     1
102
RTVSPropertyOp6
 70
     1
102
RTVSPropertyOp7
 70
     1
102
RTVSPropertyOp8
 70
     1
102
RTVSPropertyOp9
 70
     1
102
RTVSPropertyOp10
 70
     1
102
RTVSPropertyOp11
 70
     1
102
RTVSPropertyOp12
 70
     1
102
RTVSPropertyOp13
 70
     1
102
RTVSPropertyOp14
 70
     1
102
RTVSPropertyOp15
 70
     1
102
RTVSPropertyOp16
 70
     1
102
RTVSPropertyOp17
 70
     1
102
RTVSPropertyOp18
 70
     1
102
RTVSPropertyOp19
 70
     1
102
RTVSPropertyOp20
 70
     1
102
RTVSPropertyOp21
 70
     1
102
RTVSPropertyOp22
 70
     1
102
RTVSPropertyOp23
 70
     1
102
RTVSPropertyOp24
 70
     1
102
RTVSPropertyOp25
 70
     1
102
RTVSPropertyOp26
 70
     1
102
RTVSPropertyOp27
 70
     1
102
RTVSPropertyOp28
 70
     1
102
RTVSPropertyOp29
 70
     1
102
RTVSPropertyOp30
 70
     1
102
RTVSPropertyOp31
 70
     1
102
RTVSPropertyOp32
 70
     1
102
RTVSPropertyOp33
 70
     1
102
RTVSPropertyOp34
 70
     1
102
RTVSPropertyOp35
 70
     1
102
RTVSPropertyOp36
 70
     1
102
RTVSPropertyOp37
 70
     1
102
RTVSPropertyOp38
 70
     1
102
RTVSPropertyOp39
 70
     1
102
RTVSPropertyOp40
 70
     1
102
RTVSPropertyOp41
 70
     1
102
RTVSPropertyOp42
 70
     1
102
RTVSPropertyOp43
 70
     1
102
RTVSPropertyOp44
 70
     1
102
RTVSPropertyOp45
 70
     1
102
RTVSPropertyOp46
 70
     1
102
RTVSPropertyOp47
 70
     1
102
RTVSPropertyOp48
 70
     1
102
RTVSPropertyOp49
 70
     1
102
RTVSPropertyOp50
 70
     1
102
RTVSPropertyOp51
 70
     0
102
RTVSPropertyOp52
 70
     0
102
RTVSPropertyOp53
 70
     1
102
RTVSPropertyOp54
 70
     1
102
RTVSPropertyOp55
 70
     1
102
RTVSPropertyOp56
 70
     1
102
RTVSPropertyOp57
 70
     1
102
RTVSPost2010Prop28
280
     0
102
RTVSPost2010PropOp28
 70
     1
102
RTVSPost2010Prop29
280
     1
102
RTVSPost2010PropOp29
 70
     1
102
RTVSPost2010Prop30
280
     1
102
RTVSPost2010PropOp30
 70
     1
102
RTVSPost2010Prop31
280
     0
102
RTVSPost2010PropOp31
 70
     1
102
RTVSPost2010Prop32
280
     0
102
RTVSPost2010PropOp32
 70
     1
102
RTVSPost2010Prop33
280
     0
102
RTVSPost2010PropOp33
 70
     1
102
RTVSPost2010Prop34
280
     0
102
RTVSPost2010PropOp34
 70
     1
102
RTVSPost2010Prop35
280
     0
102
RTVSPost2010PropOp35
 70
     1
102
RTVSPost2010Prop36
280
     0
102
RTVSPost2010PropOp36
 70
     1
102
RTVSPost2010Prop37
 90
       50
102
RTVSPost2010PropOp37
 70
     1
102
RTVSPost2010Prop38
140
0.0
102
RTVSPost2010PropOp38
 70
     1
102
RTVSPost2010Prop39
140
1.0
102
RTVSPost2010PropOp39
 70
     1
102
RTVSPost2010Prop40
 90
        0
102
RTVSPost2010PropOp40
 70
     1
102
RTVSPost2010Prop41ColorIndex
 90
       18
102
RTVSPost2010Prop41ColorRGB
 90
        0
102
RTVSPost2010PropOp41
 70
     1
102
RTVSPost2010Prop42
 90
       50
102
RTVSPost2010PropOp42
 70
     1
102
RTVSPost2010Prop43
 90
        3
102
RTVSPost2010PropOp43
 70
     1
102
RTVSPost2010Prop44ColorIndex
 90
        5
102
RTVSPost2010Prop44ColorRGB
 90
      255
102
RTVSPost2010PropOp44
 70
     1
102
RTVSPost2010Prop45
280
     0
102
RTVSPost2010PropOp45
 70
     1
102
RTVSPost2010Prop46
 90
       50
102
RTVSPost2010PropOp46
 70
     1
102
RTVSPost2010Prop47
 90
       50
102
RTVSPost2010PropOp47
 70
     1
102
RTVSPost2010Prop48
 90
       50
102
RTVSPost2010PropOp48
 70
     1
102
RTVSPost2010Prop49
280
     0
102
RTVSPost2010PropOp49
 70
     1
102
RTVSPost2010Prop50
 90
       50
102
RTVSPost2010PropOp50
 70
     1
102
RTVSPost2010Prop51ColorIndex
 90
      256
102
RTVSPost2010Prop51ColorRGB
 90
-16777216
102
RTVSPost2010PropOp51
 70
     0
102
RTVSPost2010Prop52
140
1.0
102
RTVSPost2010PropOp52
 70
     0
102
RTVSPost2010Prop53
 90
        2
102
RTVSPost2010PropOp53
 70
     1
102
RTVSPost2010Prop54
  1
strokes_ogs.tif
102
RTVSPost2010PropOp54
 70
     1
102
RTVSPost2010Prop55
280
     0
102
RTVSPost2010PropOp55
 70
     1
102
RTVSPost2010Prop56
140
1.0
102
RTVSPost2010PropOp56
 70
     1
102
RTVSPost2010Prop57
140
1.0
102
RTVSPost2010PropOp57
 70
     1
  0
XRECORD
  5
2A4
102
{ACAD_REACTORS
330
2A3
102
}
330
2A3
100
AcDbXrecord
280
     1
102
RTVSPropertyOp0
 70
     1
102
RTVSPropertyOp1
 70
     1
102
RTVSPropertyOp2
 70
     1
102
RTVSPropertyOp3
 70
     1
102
RTVSPropertyOp4
 70
     1
102
RTVSPropertyOp5
 70
     1
102
RTVSPropertyOp6
 70
     1
102
RTVSPropertyOp7
 70
     1
102
RTVSPropertyOp8
 70
     1
102
RTVSPropertyOp9
 70
     1
102
RTVSPropertyOp10
 70
     1
102
RTVSPropertyOp11
 70
     1
102
RTVSPropertyOp12
 70
     1
102
RTVSPropertyOp13
 70
     1
102
RTVSPropertyOp14
 70
     1
102
RTVSPropertyOp15
 70
     1
102
RTVSPropertyOp16
 70
     1
102
RTVSPropertyOp17
 70
     1
102
RTVSPropertyOp18
 70
     1
102
RTVSPropertyOp19
 70
     1
102
RTVSPropertyOp20
 70
     1
102
RTVSPropertyOp21
 70
     1
102
RTVSPropertyOp22
 70
     1
102
RTVSPropertyOp23
 70
     1
102
RTVSPropertyOp24
 70
     1
102
RTVSPropertyOp25
 70
     1
102
RTVSPropertyOp26
 70
     1
102
RTVSPropertyOp27
 70
     1
102
RTVSPropertyOp28
 70
     1
102
RTVSPropertyOp29
 70
     1
102
RTVSPropertyOp30
 70
     1
102
RTVSPropertyOp31
 70
     1
102
RTVSPropertyOp32
 70
     1
102
RTVSPropertyOp33
 70
     1
102
RTVSPropertyOp34
 70
     1
102
RTVSPropertyOp35
 70
     1
102
RTVSPropertyOp36
 70
     1
102
RTVSPropertyOp37
 70
     1
102
RTVSPropertyOp38
 70
     1
102
RTVSPropertyOp39
 70
     1
102
RTVSPropertyOp40
 70
     1
102
RTVSPropertyOp41
 70
     1
102
RTVSPropertyOp42
 70
     1
102
RTVSPropertyOp43
 70
     1
102
RTVSPropertyOp44
 70
     1
102
RTVSPropertyOp45
 70
     1
102
RTVSPropertyOp46
 70
     1
102
RTVSPropertyOp47
 70
     1
102
RTVSPropertyOp48
 70
     1
102
RTVSPropertyOp49
 70
     1
102
RTVSPropertyOp50
 70
     1
102
RTVSPropertyOp51
 70
     0
102
RTVSPropertyOp52
 70
     0
102
RTVSPropertyOp53
 70
     1
102
RTVSPropertyOp54
 70
     1
102
RTVSPropertyOp55
 70
     1
102
RTVSPropertyOp56
 70
     1
102
RTVSPropertyOp57
 70
     1
102
RTVSPost2010Prop28
280
     0
102
RTVSPost2010PropOp28
 70
     1
102
RTVSPost2010Prop29
280
     1
102
RTVSPost2010PropOp29
 70
     1
102
RTVSPost2010Prop30
280
     1
102
RTVSPost2010PropOp30
 70
     1
102
RTVSPost2010Prop31
280
     0
102
RTVSPost2010PropOp31
 70
     1
102
RTVSPost2010Prop32
280
     0
102
RTVSPost2010PropOp32
 70
     1
102
RTVSPost2010Prop33
280
     0
102
RTVSPost2010PropOp33
 70
     1
102
RTVSPost2010Prop34
280
     0
102
RTVSPost2010PropOp34
 70
     1
102
RTVSPost2010Prop35
280
     0
102
RTVSPost2010PropOp35
 70
     1
102
RTVSPost2010Prop36
280
     0
102
RTVSPost2010PropOp36
 70
     1
102
RTVSPost2010Prop37
 90
       50
102
RTVSPost2010PropOp37
 70
     1
102
RTVSPost2010Prop38
140
0.0
102
RTVSPost2010PropOp38
 70
     1
102
RTVSPost2010Prop39
140
1.0
102
RTVSPost2010PropOp39
 70
     1
102
RTVSPost2010Prop40
 90
        0
102
RTVSPost2010PropOp40
 70
     1
102
RTVSPost2010Prop41ColorIndex
 90
       18
102
RTVSPost2010Prop41ColorRGB
 90
        0
102
RTVSPost2010PropOp41
 70
     1
102
RTVSPost2010Prop42
 90
       50
102
RTVSPost2010PropOp42
 70
     1
102
RTVSPost2010Prop43
 90
        3
102
RTVSPost2010PropOp43
 70
     1
102
RTVSPost2010Prop44ColorIndex
 90
        5
102
RTVSPost2010Prop44ColorRGB
 90
      255
102
RTVSPost2010PropOp44
 70
     1
102
RTVSPost2010Prop45
280
     0
102
RTVSPost2010PropOp45
 70
     1
102
RTVSPost2010Prop46
 90
       50
102
RTVSPost2010PropOp46
 70
     1
102
RTVSPost2010Prop47
 90
       50
102
RTVSPost2010PropOp47
 70
     1
102
RTVSPost2010Prop48
 90
       50
102
RTVSPost2010PropOp48
 70
     1
102
RTVSPost2010Prop49
280
     0
102
RTVSPost2010PropOp49
 70
     1
102
RTVSPost2010Prop50
 90
       50
102
RTVSPost2010PropOp50
 70
     1
102
RTVSPost2010Prop51ColorIndex
 90
      256
102
RTVSPost2010Prop51ColorRGB
 90
-16777216
102
RTVSPost2010PropOp51
 70
     0
102
RTVSPost2010Prop52
140
1.0
102
RTVSPost2010PropOp52
 70
     0
102
RTVSPost2010Prop53
 90
        2
102
RTVSPost2010PropOp53
 70
     1
102
RTVSPost2010Prop54
  1
strokes_ogs.tif
102
RTVSPost2010PropOp54
 70
     1
102
RTVSPost2010Prop55
280
     0
102
RTVSPost2010PropOp55
 70
     1
102
RTVSPost2010Prop56
140
1.0
102
RTVSPost2010PropOp56
 70
     1
102
RTVSPost2010Prop57
140
1.0
102
RTVSPost2010PropOp57
 70
     1
  0
XRECORD
  5
2AC
102
{ACAD_REACTORS
330
2AB
102
}
330
2AB
100
AcDbXrecord
280
     1
102
RTVSPropertyOp0
 70
     1
102
RTVSPropertyOp1
 70
     1
102
RTVSPropertyOp2
 70
     1
102
RTVSPropertyOp3
 70
     1
102
RTVSPropertyOp4
 70
     1
102
RTVSPropertyOp5
 70
     1
102
RTVSPropertyOp6
 70
     1
102
RTVSPropertyOp7
 70
     1
102
RTVSPropertyOp8
 70
     1
102
RTVSPropertyOp9
 70
     1
102
RTVSPropertyOp10
 70
     1
102
RTVSPropertyOp11
 70
     1
102
RTVSPropertyOp12
 70
     1
102
RTVSPropertyOp13
 70
     1
102
RTVSPropertyOp14
 70
     1
102
RTVSPropertyOp15
 70
     1
102
RTVSPropertyOp16
 70
     1
102
RTVSPropertyOp17
 70
     1
102
RTVSPropertyOp18
 70
     1
102
RTVSPropertyOp19
 70
     1
102
RTVSPropertyOp20
 70
     1
102
RTVSPropertyOp21
 70
     1
102
RTVSPropertyOp22
 70
     1
102
RTVSPropertyOp23
 70
     1
102
RTVSPropertyOp24
 70
     1
102
RTVSPropertyOp25
 70
     1
102
RTVSPropertyOp26
 70
     1
102
RTVSPropertyOp27
 70
     1
102
RTVSPropertyOp28
 70
     1
102
RTVSPropertyOp29
 70
     1
102
RTVSPropertyOp30
 70
     1
102
RTVSPropertyOp31
 70
     1
102
RTVSPropertyOp32
 70
     1
102
RTVSPropertyOp33
 70
     1
102
RTVSPropertyOp34
 70
     1
102
RTVSPropertyOp35
 70
     1
102
RTVSPropertyOp36
 70
     1
102
RTVSPropertyOp37
 70
     1
102
RTVSPropertyOp38
 70
     1
102
RTVSPropertyOp39
 70
     1
102
RTVSPropertyOp40
 70
     1
102
RTVSPropertyOp41
 70
     1
102
RTVSPropertyOp42
 70
     1
102
RTVSPropertyOp43
 70
     1
102
RTVSPropertyOp44
 70
     1
102
RTVSPropertyOp45
 70
     1
102
RTVSPropertyOp46
 70
     1
102
RTVSPropertyOp47
 70
     1
102
RTVSPropertyOp48
 70
     1
102
RTVSPropertyOp49
 70
     1
102
RTVSPropertyOp50
 70
     1
102
RTVSPropertyOp51
 70
     0
102
RTVSPropertyOp52
 70
     0
102
RTVSPropertyOp53
 70
     1
102
RTVSPropertyOp54
 70
     1
102
RTVSPropertyOp55
 70
     1
102
RTVSPropertyOp56
 70
     1
102
RTVSPropertyOp57
 70
     1
102
RTVSPost2010Prop28
280
     0
102
RTVSPost2010PropOp28
 70
     1
102
RTVSPost2010Prop29
280
     1
102
RTVSPost2010PropOp29
 70
     1
102
RTVSPost2010Prop30
280
     1
102
RTVSPost2010PropOp30
 70
     1
102
RTVSPost2010Prop31
280
     0
102
RTVSPost2010PropOp31
 70
     1
102
RTVSPost2010Prop32
280
     0
102
RTVSPost2010PropOp32
 70
     1
102
RTVSPost2010Prop33
280
     0
102
RTVSPost2010PropOp33
 70
     1
102
RTVSPost2010Prop34
280
     0
102
RTVSPost2010PropOp34
 70
     1
102
RTVSPost2010Prop35
280
     0
102
RTVSPost2010PropOp35
 70
     1
102
RTVSPost2010Prop36
280
     0
102
RTVSPost2010PropOp36
 70
     1
102
RTVSPost2010Prop37
 90
       50
102
RTVSPost2010PropOp37
 70
     1
102
RTVSPost2010Prop38
140
0.0
102
RTVSPost2010PropOp38
 70
     1
102
RTVSPost2010Prop39
140
1.0
102
RTVSPost2010PropOp39
 70
     1
102
RTVSPost2010Prop40
 90
        0
102
RTVSPost2010PropOp40
 70
     1
102
RTVSPost2010Prop41ColorIndex
 90
       18
102
RTVSPost2010Prop41ColorRGB
 90
        0
102
RTVSPost2010PropOp41
 70
     1
102
RTVSPost2010Prop42
 90
       50
102
RTVSPost2010PropOp42
 70
     1
102
RTVSPost2010Prop43
 90
        3
102
RTVSPost2010PropOp43
 70
     1
102
RTVSPost2010Prop44ColorIndex
 90
        5
102
RTVSPost2010Prop44ColorRGB
 90
      255
102
RTVSPost2010PropOp44
 70
     1
102
RTVSPost2010Prop45
280
     0
102
RTVSPost2010PropOp45
 70
     1
102
RTVSPost2010Prop46
 90
       50
102
RTVSPost2010PropOp46
 70
     1
102
RTVSPost2010Prop47
 90
       50
102
RTVSPost2010PropOp47
 70
     1
102
RTVSPost2010Prop48
 90
       50
102
RTVSPost2010PropOp48
 70
     1
102
RTVSPost2010Prop49
280
     0
102
RTVSPost2010PropOp49
 70
     1
102
RTVSPost2010Prop50
 90
       50
102
RTVSPost2010PropOp50
 70
     1
102
RTVSPost2010Prop51ColorIndex
 90
      256
102
RTVSPost2010Prop51ColorRGB
 90
-16777216
102
RTVSPost2010PropOp51
 70
     0
102
RTVSPost2010Prop52
140
1.0
102
RTVSPost2010PropOp52
 70
     0
102
RTVSPost2010Prop53
 90
        2
102
RTVSPost2010PropOp53
 70
     1
102
RTVSPost2010Prop54
  1
strokes_ogs.tif
102
RTVSPost2010PropOp54
 70
     1
102
RTVSPost2010Prop55
280
     0
102
RTVSPost2010PropOp55
 70
     1
102
RTVSPost2010Prop56
140
1.0
102
RTVSPost2010PropOp56
 70
     1
102
RTVSPost2010Prop57
140
1.0
102
RTVSPost2010PropOp57
 70
     1
  0
XRECORD
  5
2A0
102
{ACAD_REACTORS
330
29F
102
}
330
29F
100
AcDbXrecord
280
     1
102
RTVSPropertyOp0
 70
     1
102
RTVSPropertyOp1
 70
     1
102
RTVSPropertyOp2
 70
     1
102
RTVSPropertyOp3
 70
     1
102
RTVSPropertyOp4
 70
     1
102
RTVSPropertyOp5
 70
     1
102
RTVSPropertyOp6
 70
     1
102
RTVSPropertyOp7
 70
     1
102
RTVSPropertyOp8
 70
     1
102
RTVSPropertyOp9
 70
     1
102
RTVSPropertyOp10
 70
     1
102
RTVSPropertyOp11
 70
     1
102
RTVSPropertyOp12
 70
     1
102
RTVSPropertyOp13
 70
     1
102
RTVSPropertyOp14
 70
     1
102
RTVSPropertyOp15
 70
     1
102
RTVSPropertyOp16
 70
     1
102
RTVSPropertyOp17
 70
     1
102
RTVSPropertyOp18
 70
     1
102
RTVSPropertyOp19
 70
     1
102
RTVSPropertyOp20
 70
     1
102
RTVSPropertyOp21
 70
     1
102
RTVSPropertyOp22
 70
     1
102
RTVSPropertyOp23
 70
     1
102
RTVSPropertyOp24
 70
     1
102
RTVSPropertyOp25
 70
     1
102
RTVSPropertyOp26
 70
     1
102
RTVSPropertyOp27
 70
     1
102
RTVSPropertyOp28
 70
     1
102
RTVSPropertyOp29
 70
     1
102
RTVSPropertyOp30
 70
     1
102
RTVSPropertyOp31
 70
     1
102
RTVSPropertyOp32
 70
     1
102
RTVSPropertyOp33
 70
     1
102
RTVSPropertyOp34
 70
     1
102
RTVSPropertyOp35
 70
     1
102
RTVSPropertyOp36
 70
     1
102
RTVSPropertyOp37
 70
     1
102
RTVSPropertyOp38
 70
     1
102
RTVSPropertyOp39
 70
     1
102
RTVSPropertyOp40
 70
     1
102
RTVSPropertyOp41
 70
     1
102
RTVSPropertyOp42
 70
     1
102
RTVSPropertyOp43
 70
     1
102
RTVSPropertyOp44
 70
     1
102
RTVSPropertyOp45
 70
     1
102
RTVSPropertyOp46
 70
     1
102
RTVSPropertyOp47
 70
     1
102
RTVSPropertyOp48
 70
     1
102
RTVSPropertyOp49
 70
     1
102
RTVSPropertyOp50
 70
     1
102
RTVSPropertyOp51
 70
     0
102
RTVSPropertyOp52
 70
     0
102
RTVSPropertyOp53
 70
     1
102
RTVSPropertyOp54
 70
     1
102
RTVSPropertyOp55
 70
     1
102
RTVSPropertyOp56
 70
     1
102
RTVSPropertyOp57
 70
     1
102
RTVSPost2010Prop28
280
     0
102
RTVSPost2010PropOp28
 70
     1
102
RTVSPost2010Prop29
280
     1
102
RTVSPost2010PropOp29
 70
     1
102
RTVSPost2010Prop30
280
     1
102
RTVSPost2010PropOp30
 70
     1
102
RTVSPost2010Prop31
280
     0
102
RTVSPost2010PropOp31
 70
     1
102
RTVSPost2010Prop32
280
     0
102
RTVSPost2010PropOp32
 70
     1
102
RTVSPost2010Prop33
280
     0
102
RTVSPost2010PropOp33
 70
     1
102
RTVSPost2010Prop34
280
     0
102
RTVSPost2010PropOp34
 70
     1
102
RTVSPost2010Prop35
280
     0
102
RTVSPost2010PropOp35
 70
     1
102
RTVSPost2010Prop36
280
     0
102
RTVSPost2010PropOp36
 70
     1
102
RTVSPost2010Prop37
 90
       50
102
RTVSPost2010PropOp37
 70
     1
102
RTVSPost2010Prop38
140
0.0
102
RTVSPost2010PropOp38
 70
     1
102
RTVSPost2010Prop39
140
1.0
102
RTVSPost2010PropOp39
 70
     1
102
RTVSPost2010Prop40
 90
        0
102
RTVSPost2010PropOp40
 70
     1
102
RTVSPost2010Prop41ColorIndex
 90
       18
102
RTVSPost2010Prop41ColorRGB
 90
        0
102
RTVSPost2010PropOp41
 70
     1
102
RTVSPost2010Prop42
 90
       50
102
RTVSPost2010PropOp42
 70
     1
102
RTVSPost2010Prop43
 90
        3
102
RTVSPost2010PropOp43
 70
     1
102
RTVSPost2010Prop44ColorIndex
 90
        5
102
RTVSPost2010Prop44ColorRGB
 90
      255
102
RTVSPost2010PropOp44
 70
     1
102
RTVSPost2010Prop45
280
     0
102
RTVSPost2010PropOp45
 70
     1
102
RTVSPost2010Prop46
 90
       50
102
RTVSPost2010PropOp46
 70
     1
102
RTVSPost2010Prop47
 90
       50
102
RTVSPost2010PropOp47
 70
     1
102
RTVSPost2010Prop48
 90
       50
102
RTVSPost2010PropOp48
 70
     1
102
RTVSPost2010Prop49
280
     0
102
RTVSPost2010PropOp49
 70
     1
102
RTVSPost2010Prop50
 90
       50
102
RTVSPost2010PropOp50
 70
     1
102
RTVSPost2010Prop51ColorIndex
 90
      256
102
RTVSPost2010Prop51ColorRGB
 90
-16777216
102
RTVSPost2010PropOp51
 70
     0
102
RTVSPost2010Prop52
140
1.0
102
RTVSPost2010PropOp52
 70
     0
102
RTVSPost2010Prop53
 90
        2
102
RTVSPost2010PropOp53
 70
     1
102
RTVSPost2010Prop54
  1
strokes_ogs.tif
102
RTVSPost2010PropOp54
 70
     1
102
RTVSPost2010Prop55
280
     0
102
RTVSPost2010PropOp55
 70
     1
102
RTVSPost2010Prop56
140
1.0
102
RTVSPost2010PropOp56
 70
     1
102
RTVSPost2010Prop57
140
1.0
102
RTVSPost2010PropOp57
 70
     1
  0
XRECORD
  5
2A2
102
{ACAD_REACTORS
330
2A1
102
}
330
2A1
100
AcDbXrecord
280
     1
102
RTVSPropertyOp0
 70
     1
102
RTVSPropertyOp1
 70
     1
102
RTVSPropertyOp2
 70
     1
102
RTVSPropertyOp3
 70
     1
102
RTVSPropertyOp4
 70
     1
102
RTVSPropertyOp5
 70
     1
102
RTVSPropertyOp6
 70
     1
102
RTVSPropertyOp7
 70
     1
102
RTVSPropertyOp8
 70
     1
102
RTVSPropertyOp9
 70
     1
102
RTVSPropertyOp10
 70
     1
102
RTVSPropertyOp11
 70
     1
102
RTVSPropertyOp12
 70
     1
102
RTVSPropertyOp13
 70
     1
102
RTVSPropertyOp14
 70
     1
102
RTVSPropertyOp15
 70
     1
102
RTVSPropertyOp16
 70
     1
102
RTVSPropertyOp17
 70
     1
102
RTVSPropertyOp18
 70
     1
102
RTVSPropertyOp19
 70
     1
102
RTVSPropertyOp20
 70
     1
102
RTVSPropertyOp21
 70
     1
102
RTVSPropertyOp22
 70
     1
102
RTVSPropertyOp23
 70
     1
102
RTVSPropertyOp24
 70
     1
102
RTVSPropertyOp25
 70
     1
102
RTVSPropertyOp26
 70
     1
102
RTVSPropertyOp27
 70
     1
102
RTVSPropertyOp28
 70
     1
102
RTVSPropertyOp29
 70
     1
102
RTVSPropertyOp30
 70
     1
102
RTVSPropertyOp31
 70
     1
102
RTVSPropertyOp32
 70
     1
102
RTVSPropertyOp33
 70
     1
102
RTVSPropertyOp34
 70
     1
102
RTVSPropertyOp35
 70
     1
102
RTVSPropertyOp36
 70
     1
102
RTVSPropertyOp37
 70
     1
102
RTVSPropertyOp38
 70
     1
102
RTVSPropertyOp39
 70
     1
102
RTVSPropertyOp40
 70
     1
102
RTVSPropertyOp41
 70
     1
102
RTVSPropertyOp42
 70
     1
102
RTVSPropertyOp43
 70
     1
102
RTVSPropertyOp44
 70
     1
102
RTVSPropertyOp45
 70
     1
102
RTVSPropertyOp46
 70
     1
102
RTVSPropertyOp47
 70
     1
102
RTVSPropertyOp48
 70
     1
102
RTVSPropertyOp49
 70
     1
102
RTVSPropertyOp50
 70
     1
102
RTVSPropertyOp51
 70
     0
102
RTVSPropertyOp52
 70
     0
102
RTVSPropertyOp53
 70
     1
102
RTVSPropertyOp54
 70
     1
102
RTVSPropertyOp55
 70
     1
102
RTVSPropertyOp56
 70
     1
102
RTVSPropertyOp57
 70
     1
102
RTVSPost2010Prop28
280
     0
102
RTVSPost2010PropOp28
 70
     1
102
RTVSPost2010Prop29
280
     1
102
RTVSPost2010PropOp29
 70
     1
102
RTVSPost2010Prop30
280
     1
102
RTVSPost2010PropOp30
 70
     1
102
RTVSPost2010Prop31
280
     0
102
RTVSPost2010PropOp31
 70
     1
102
RTVSPost2010Prop32
280
     0
102
RTVSPost2010PropOp32
 70
     1
102
RTVSPost2010Prop33
280
     0
102
RTVSPost2010PropOp33
 70
     1
102
RTVSPost2010Prop34
280
     0
102
RTVSPost2010PropOp34
 70
     1
102
RTVSPost2010Prop35
280
     0
102
RTVSPost2010PropOp35
 70
     1
102
RTVSPost2010Prop36
280
     0
102
RTVSPost2010PropOp36
 70
     1
102
RTVSPost2010Prop37
 90
       50
102
RTVSPost2010PropOp37
 70
     1
102
RTVSPost2010Prop38
140
0.0
102
RTVSPost2010PropOp38
 70
     1
102
RTVSPost2010Prop39
140
1.0
102
RTVSPost2010PropOp39
 70
     1
102
RTVSPost2010Prop40
 90
        0
102
RTVSPost2010PropOp40
 70
     1
102
RTVSPost2010Prop41ColorIndex
 90
       18
102
RTVSPost2010Prop41ColorRGB
 90
        0
102
RTVSPost2010PropOp41
 70
     1
102
RTVSPost2010Prop42
 90
       50
102
RTVSPost2010PropOp42
 70
     1
102
RTVSPost2010Prop43
 90
        3
102
RTVSPost2010PropOp43
 70
     1
102
RTVSPost2010Prop44ColorIndex
 90
        5
102
RTVSPost2010Prop44ColorRGB
 90
      255
102
RTVSPost2010PropOp44
 70
     1
102
RTVSPost2010Prop45
280
     0
102
RTVSPost2010PropOp45
 70
     1
102
RTVSPost2010Prop46
 90
       50
102
RTVSPost2010PropOp46
 70
     1
102
RTVSPost2010Prop47
 90
       50
102
RTVSPost2010PropOp47
 70
     1
102
RTVSPost2010Prop48
 90
       50
102
RTVSPost2010PropOp48
 70
     1
102
RTVSPost2010Prop49
280
     0
102
RTVSPost2010PropOp49
 70
     1
102
RTVSPost2010Prop50
 90
       50
102
RTVSPost2010PropOp50
 70
     1
102
RTVSPost2010Prop51ColorIndex
 90
      256
102
RTVSPost2010Prop51ColorRGB
 90
-16777216
102
RTVSPost2010PropOp51
 70
     0
102
RTVSPost2010Prop52
140
1.0
102
RTVSPost2010PropOp52
 70
     0
102
RTVSPost2010Prop53
 90
        2
102
RTVSPost2010PropOp53
 70
     1
102
RTVSPost2010Prop54
  1
strokes_ogs.tif
102
RTVSPost2010PropOp54
 70
     1
102
RTVSPost2010Prop55
280
     0
102
RTVSPost2010PropOp55
 70
     1
102
RTVSPost2010Prop56
140
1.0
102
RTVSPost2010PropOp56
 70
     1
102
RTVSPost2010Prop57
140
1.0
102
RTVSPost2010PropOp57
 70
     1
  0
XRECORD
  5
2B2
102
{ACAD_REACTORS
330
2B1
102
}
330
2B1
100
AcDbXrecord
280
     1
102
RTVSPropertyOp0
 70
     0
102
RTVSPropertyOp1
 70
     0
102
RTVSPropertyOp2
 70
     0
102
RTVSPropertyOp3
 70
     0
102
RTVSPropertyOp4
 70
     0
102
RTVSPropertyOp5
 70
     0
102
RTVSPropertyOp6
 70
     0
102
RTVSPropertyOp7
 70
     0
102
RTVSPropertyOp8
 70
     0
102
RTVSPropertyOp9
 70
     0
102
RTVSPropertyOp10
 70
     0
102
RTVSPropertyOp11
 70
     0
102
RTVSPropertyOp12
 70
     0
102
RTVSPropertyOp13
 70
     0
102
RTVSPropertyOp14
 70
     2
102
RTVSPropertyOp15
 70
     0
102
RTVSPropertyOp16
 70
     0
102
RTVSPropertyOp17
 70
     0
102
RTVSPropertyOp18
 70
     0
102
RTVSPropertyOp19
 70
     0
102
RTVSPropertyOp20
 70
     0
102
RTVSPropertyOp21
 70
     0
102
RTVSPropertyOp22
 70
     0
102
RTVSPropertyOp23
 70
     0
102
RTVSPropertyOp24
 70
     0
102
RTVSPropertyOp25
 70
     0
102
RTVSPropertyOp26
 70
     0
102
RTVSPropertyOp27
 70
     0
102
RTVSPropertyOp28
 70
     0
102
RTVSPropertyOp29
 70
     0
102
RTVSPropertyOp30
 70
     0
102
RTVSPropertyOp31
 70
     0
102
RTVSPropertyOp32
 70
     0
102
RTVSPropertyOp33
 70
     0
102
RTVSPropertyOp34
 70
     0
102
RTVSPropertyOp35
 70
     0
102
RTVSPropertyOp36
 70
     0
102
RTVSPropertyOp37
 70
     0
102
RTVSPropertyOp38
 70
     0
102
RTVSPropertyOp39
 70
     0
102
RTVSPropertyOp40
 70
     0
102
RTVSPropertyOp41
 70
     0
102
RTVSPropertyOp42
 70
     0
102
RTVSPropertyOp43
 70
     0
102
RTVSPropertyOp44
 70
     0
102
RTVSPropertyOp45
 70
     0
102
RTVSPropertyOp46
 70
     0
102
RTVSPropertyOp47
 70
     0
102
RTVSPropertyOp48
 70
     0
102
RTVSPropertyOp49
 70
     0
102
RTVSPropertyOp50
 70
     0
102
RTVSPropertyOp51
 70
     0
102
RTVSPropertyOp52
 70
     0
102
RTVSPropertyOp53
 70
     0
102
RTVSPropertyOp54
 70
     0
102
RTVSPropertyOp55
 70
     0
102
RTVSPropertyOp56
 70
     0
102
RTVSPropertyOp57
 70
     0
102
RTVSPost2010Prop28
280
     0
102
RTVSPost2010PropOp28
 70
     0
102
RTVSPost2010Prop29
280
     1
102
RTVSPost2010PropOp29
 70
     0
102
RTVSPost2010Prop30
280
     1
102
RTVSPost2010PropOp30
 70
     0
102
RTVSPost2010Prop31
280
     0
102
RTVSPost2010PropOp31
 70
     0
102
RTVSPost2010Prop32
280
     0
102
RTVSPost2010PropOp32
 70
     0
102
RTVSPost2010Prop33
280
     0
102
RTVSPost2010PropOp33
 70
     0
102
RTVSPost2010Prop34
280
     0
102
RTVSPost2010PropOp34
 70
     0
102
RTVSPost2010Prop35
280
     0
102
RTVSPost2010PropOp35
 70
     0
102
RTVSPost2010Prop36
280
     0
102
RTVSPost2010PropOp36
 70
     0
102
RTVSPost2010Prop37
 90
       50
102
RTVSPost2010PropOp37
 70
     0
102
RTVSPost2010Prop38
140
0.0
102
RTVSPost2010PropOp38
 70
     0
102
RTVSPost2010Prop39
140
1.0
102
RTVSPost2010PropOp39
 70
     0
102
RTVSPost2010Prop40
 90
        0
102
RTVSPost2010PropOp40
 70
     0
102
RTVSPost2010Prop41ColorIndex
 90
       18
102
RTVSPost2010Prop41ColorRGB
 90
        0
102
RTVSPost2010PropOp41
 70
     0
102
RTVSPost2010Prop42
 90
       50
102
RTVSPost2010PropOp42
 70
     0
102
RTVSPost2010Prop43
 90
        3
102
RTVSPost2010PropOp43
 70
     0
102
RTVSPost2010Prop44ColorIndex
 90
        5
102
RTVSPost2010Prop44ColorRGB
 90
      255
102
RTVSPost2010PropOp44
 70
     0
102
RTVSPost2010Prop45
280
     0
102
RTVSPost2010PropOp45
 70
     0
102
RTVSPost2010Prop46
 90
       50
102
RTVSPost2010PropOp46
 70
     0
102
RTVSPost2010Prop47
 90
       50
102
RTVSPost2010PropOp47
 70
     0
102
RTVSPost2010Prop48
 90
       50
102
RTVSPost2010PropOp48
 70
     0
102
RTVSPost2010Prop49
280
     0
102
RTVSPost2010PropOp49
 70
     0
102
RTVSPost2010Prop50
 90
       50
102
RTVSPost2010PropOp50
 70
     0
102
RTVSPost2010Prop51ColorIndex
 90
      256
102
RTVSPost2010Prop51ColorRGB
 90
-16777216
102
RTVSPost2010PropOp51
 70
     0
102
RTVSPost2010Prop52
140
1.0
102
RTVSPost2010PropOp52
 70
     0
102
RTVSPost2010Prop53
 90
        2
102
RTVSPost2010PropOp53
 70
     0
102
RTVSPost2010Prop54
  1
strokes_ogs.tif
102
RTVSPost2010PropOp54
 70
     0
102
RTVSPost2010Prop55
280
     0
102
RTVSPost2010PropOp55
 70
     0
102
RTVSPost2010Prop56
140
1.0
102
RTVSPost2010PropOp56
 70
     0
102
RTVSPost2010Prop57
140
1.0
102
RTVSPost2010PropOp57
 70
     0
  0
XRECORD
  5
2AA
102
{ACAD_REACTORS
330
2A9
102
}
330
2A9
100
AcDbXrecord
280
     1
102
RTVSPropertyOp0
 70
     1
102
RTVSPropertyOp1
 70
     1
102
RTVSPropertyOp2
 70
     1
102
RTVSPropertyOp3
 70
     1
102
RTVSPropertyOp4
 70
     1
102
RTVSPropertyOp5
 70
     1
102
RTVSPropertyOp6
 70
     1
102
RTVSPropertyOp7
 70
     1
102
RTVSPropertyOp8
 70
     1
102
RTVSPropertyOp9
 70
     1
102
RTVSPropertyOp10
 70
     1
102
RTVSPropertyOp11
 70
     1
102
RTVSPropertyOp12
 70
     1
102
RTVSPropertyOp13
 70
     1
102
RTVSPropertyOp14
 70
     1
102
RTVSPropertyOp15
 70
     1
102
RTVSPropertyOp16
 70
     1
102
RTVSPropertyOp17
 70
     1
102
RTVSPropertyOp18
 70
     1
102
RTVSPropertyOp19
 70
     1
102
RTVSPropertyOp20
 70
     1
102
RTVSPropertyOp21
 70
     1
102
RTVSPropertyOp22
 70
     1
102
RTVSPropertyOp23
 70
     1
102
RTVSPropertyOp24
 70
     1
102
RTVSPropertyOp25
 70
     1
102
RTVSPropertyOp26
 70
     1
102
RTVSPropertyOp27
 70
     1
102
RTVSPropertyOp28
 70
     1
102
RTVSPropertyOp29
 70
     1
102
RTVSPropertyOp30
 70
     1
102
RTVSPropertyOp31
 70
     1
102
RTVSPropertyOp32
 70
     1
102
RTVSPropertyOp33
 70
     1
102
RTVSPropertyOp34
 70
     1
102
RTVSPropertyOp35
 70
     1
102
RTVSPropertyOp36
 70
     1
102
RTVSPropertyOp37
 70
     1
102
RTVSPropertyOp38
 70
     1
102
RTVSPropertyOp39
 70
     1
102
RTVSPropertyOp40
 70
     1
102
RTVSPropertyOp41
 70
     1
102
RTVSPropertyOp42
 70
     1
102
RTVSPropertyOp43
 70
     1
102
RTVSPropertyOp44
 70
     1
102
RTVSPropertyOp45
 70
     1
102
RTVSPropertyOp46
 70
     1
102
RTVSPropertyOp47
 70
     1
102
RTVSPropertyOp48
 70
     1
102
RTVSPropertyOp49
 70
     1
102
RTVSPropertyOp50
 70
     1
102
RTVSPropertyOp51
 70
     0
102
RTVSPropertyOp52
 70
     0
102
RTVSPropertyOp53
 70
     1
102
RTVSPropertyOp54
 70
     1
102
RTVSPropertyOp55
 70
     1
102
RTVSPropertyOp56
 70
     1
102
RTVSPropertyOp57
 70
     1
102
RTVSPost2010Prop28
280
     0
102
RTVSPost2010PropOp28
 70
     1
102
RTVSPost2010Prop29
280
     1
102
RTVSPost2010PropOp29
 70
     1
102
RTVSPost2010Prop30
280
     1
102
RTVSPost2010PropOp30
 70
     1
102
RTVSPost2010Prop31
280
     0
102
RTVSPost2010PropOp31
 70
     1
102
RTVSPost2010Prop32
280
     0
102
RTVSPost2010PropOp32
 70
     1
102
RTVSPost2010Prop33
280
     0
102
RTVSPost2010PropOp33
 70
     1
102
RTVSPost2010Prop34
280
     0
102
RTVSPost2010PropOp34
 70
     1
102
RTVSPost2010Prop35
280
     0
102
RTVSPost2010PropOp35
 70
     1
102
RTVSPost2010Prop36
280
     0
102
RTVSPost2010PropOp36
 70
     1
102
RTVSPost2010Prop37
 90
       50
102
RTVSPost2010PropOp37
 70
     1
102
RTVSPost2010Prop38
140
0.0
102
RTVSPost2010PropOp38
 70
     1
102
RTVSPost2010Prop39
140
1.0
102
RTVSPost2010PropOp39
 70
     1
102
RTVSPost2010Prop40
 90
        0
102
RTVSPost2010PropOp40
 70
     1
102
RTVSPost2010Prop41ColorIndex
 90
       18
102
RTVSPost2010Prop41ColorRGB
 90
        0
102
RTVSPost2010PropOp41
 70
     1
102
RTVSPost2010Prop42
 90
       50
102
RTVSPost2010PropOp42
 70
     1
102
RTVSPost2010Prop43
 90
        3
102
RTVSPost2010PropOp43
 70
     1
102
RTVSPost2010Prop44ColorIndex
 90
        5
102
RTVSPost2010Prop44ColorRGB
 90
      255
102
RTVSPost2010PropOp44
 70
     1
102
RTVSPost2010Prop45
280
     0
102
RTVSPost2010PropOp45
 70
     1
102
RTVSPost2010Prop46
 90
       50
102
RTVSPost2010PropOp46
 70
     1
102
RTVSPost2010Prop47
 90
       50
102
RTVSPost2010PropOp47
 70
     1
102
RTVSPost2010Prop48
 90
       50
102
RTVSPost2010PropOp48
 70
     1
102
RTVSPost2010Prop49
280
     0
102
RTVSPost2010PropOp49
 70
     1
102
RTVSPost2010Prop50
 90
       50
102
RTVSPost2010PropOp50
 70
     1
102
RTVSPost2010Prop51ColorIndex
 90
      256
102
RTVSPost2010Prop51ColorRGB
 90
-16777216
102
RTVSPost2010PropOp51
 70
     0
102
RTVSPost2010Prop52
140
1.0
102
RTVSPost2010PropOp52
 70
     0
102
RTVSPost2010Prop53
 90
        2
102
RTVSPost2010PropOp53
 70
     1
102
RTVSPost2010Prop54
  1
strokes_ogs.tif
102
RTVSPost2010PropOp54
 70
     1
102
RTVSPost2010Prop55
280
     0
102
RTVSPost2010PropOp55
 70
     1
102
RTVSPost2010Prop56
140
1.0
102
RTVSPost2010PropOp56
 70
     1
102
RTVSPost2010Prop57
140
1.0
102
RTVSPost2010PropOp57
 70
     1
  0
XRECORD
  5
28E
102
{ACAD_REACTORS
330
28D
102
}
330
28D
100
AcDbXrecord
280
     1
102
RTVSPropertyOp0
 70
     1
102
RTVSPropertyOp1
 70
     1
102
RTVSPropertyOp2
 70
     1
102
RTVSPropertyOp3
 70
     1
102
RTVSPropertyOp4
 70
     1
102
RTVSPropertyOp5
 70
     1
102
RTVSPropertyOp6
 70
     1
102
RTVSPropertyOp7
 70
     1
102
RTVSPropertyOp8
 70
     1
102
RTVSPropertyOp9
 70
     1
102
RTVSPropertyOp10
 70
     1
102
RTVSPropertyOp11
 70
     1
102
RTVSPropertyOp12
 70
     1
102
RTVSPropertyOp13
 70
     1
102
RTVSPropertyOp14
 70
     1
102
RTVSPropertyOp15
 70
     1
102
RTVSPropertyOp16
 70
     1
102
RTVSPropertyOp17
 70
     1
102
RTVSPropertyOp18
 70
     1
102
RTVSPropertyOp19
 70
     1
102
RTVSPropertyOp20
 70
     1
102
RTVSPropertyOp21
 70
     1
102
RTVSPropertyOp22
 70
     1
102
RTVSPropertyOp23
 70
     1
102
RTVSPropertyOp24
 70
     1
102
RTVSPropertyOp25
 70
     1
102
RTVSPropertyOp26
 70
     1
102
RTVSPropertyOp27
 70
     1
102
RTVSPropertyOp28
 70
     1
102
RTVSPropertyOp29
 70
     1
102
RTVSPropertyOp30
 70
     1
102
RTVSPropertyOp31
 70
     1
102
RTVSPropertyOp32
 70
     1
102
RTVSPropertyOp33
 70
     1
102
RTVSPropertyOp34
 70
     1
102
RTVSPropertyOp35
 70
     1
102
RTVSPropertyOp36
 70
     1
102
RTVSPropertyOp37
 70
     1
102
RTVSPropertyOp38
 70
     1
102
RTVSPropertyOp39
 70
     1
102
RTVSPropertyOp40
 70
     1
102
RTVSPropertyOp41
 70
     1
102
RTVSPropertyOp42
 70
     1
102
RTVSPropertyOp43
 70
     1
102
RTVSPropertyOp44
 70
     1
102
RTVSPropertyOp45
 70
     1
102
RTVSPropertyOp46
 70
     1
102
RTVSPropertyOp47
 70
     1
102
RTVSPropertyOp48
 70
     1
102
RTVSPropertyOp49
 70
     1
102
RTVSPropertyOp50
 70
     1
102
RTVSPropertyOp51
 70
     0
102
RTVSPropertyOp52
 70
     0
102
RTVSPropertyOp53
 70
     1
102
RTVSPropertyOp54
 70
     1
102
RTVSPropertyOp55
 70
     1
102
RTVSPropertyOp56
 70
     1
102
RTVSPropertyOp57
 70
     1
102
RTVSPost2010Prop28
280
     0
102
RTVSPost2010PropOp28
 70
     1
102
RTVSPost2010Prop29
280
     1
102
RTVSPost2010PropOp29
 70
     1
102
RTVSPost2010Prop30
280
     1
102
RTVSPost2010PropOp30
 70
     1
102
RTVSPost2010Prop31
280
     0
102
RTVSPost2010PropOp31
 70
     1
102
RTVSPost2010Prop32
280
     0
102
RTVSPost2010PropOp32
 70
     1
102
RTVSPost2010Prop33
280
     0
102
RTVSPost2010PropOp33
 70
     1
102
RTVSPost2010Prop34
280
     0
102
RTVSPost2010PropOp34
 70
     1
102
RTVSPost2010Prop35
280
     0
102
RTVSPost2010PropOp35
 70
     1
102
RTVSPost2010Prop36
280
     0
102
RTVSPost2010PropOp36
 70
     1
102
RTVSPost2010Prop37
 90
       50
102
RTVSPost2010PropOp37
 70
     1
102
RTVSPost2010Prop38
140
0.0
102
RTVSPost2010PropOp38
 70
     1
102
RTVSPost2010Prop39
140
1.0
102
RTVSPost2010PropOp39
 70
     1
102
RTVSPost2010Prop40
 90
        0
102
RTVSPost2010PropOp40
 70
     1
102
RTVSPost2010Prop41ColorIndex
 90
       18
102
RTVSPost2010Prop41ColorRGB
 90
        0
102
RTVSPost2010PropOp41
 70
     1
102
RTVSPost2010Prop42
 90
       50
102
RTVSPost2010PropOp42
 70
     1
102
RTVSPost2010Prop43
 90
        3
102
RTVSPost2010PropOp43
 70
     1
102
RTVSPost2010Prop44ColorIndex
 90
        5
102
RTVSPost2010Prop44ColorRGB
 90
      255
102
RTVSPost2010PropOp44
 70
     1
102
RTVSPost2010Prop45
280
     0
102
RTVSPost2010PropOp45
 70
     1
102
RTVSPost2010Prop46
 90
       50
102
RTVSPost2010PropOp46
 70
     1
102
RTVSPost2010Prop47
 90
       50
102
RTVSPost2010PropOp47
 70
     1
102
RTVSPost2010Prop48
 90
       50
102
RTVSPost2010PropOp48
 70
     1
102
RTVSPost2010Prop49
280
     0
102
RTVSPost2010PropOp49
 70
     1
102
RTVSPost2010Prop50
 90
       50
102
RTVSPost2010PropOp50
 70
     1
102
RTVSPost2010Prop51ColorIndex
 90
      256
102
RTVSPost2010Prop51ColorRGB
 90
-16777216
102
RTVSPost2010PropOp51
 70
     0
102
RTVSPost2010Prop52
140
1.0
102
RTVSPost2010PropOp52
 70
     0
102
RTVSPost2010Prop53
 90
        2
102
RTVSPost2010PropOp53
 70
     1
102
RTVSPost2010Prop54
  1
strokes_ogs.tif
102
RTVSPost2010PropOp54
 70
     1
102
RTVSPost2010Prop55
280
     0
102
RTVSPost2010PropOp55
 70
     1
102
RTVSPost2010Prop56
140
1.0
102
RTVSPost2010PropOp56
 70
     1
102
RTVSPost2010Prop57
140
1.0
102
RTVSPost2010PropOp57
 70
     1
  0
XRECORD
  5
290
102
{ACAD_REACTORS
330
28F
102
}
330
28F
100
AcDbXrecord
280
     1
102
RTVSPropertyOp0
 70
     1
102
RTVSPropertyOp1
 70
     1
102
RTVSPropertyOp2
 70
     1
102
RTVSPropertyOp3
 70
     1
102
RTVSPropertyOp4
 70
     1
102
RTVSPropertyOp5
 70
     1
102
RTVSPropertyOp6
 70
     1
102
RTVSPropertyOp7
 70
     1
102
RTVSPropertyOp8
 70
     1
102
RTVSPropertyOp9
 70
     1
102
RTVSPropertyOp10
 70
     1
102
RTVSPropertyOp11
 70
     1
102
RTVSPropertyOp12
 70
     1
102
RTVSPropertyOp13
 70
     1
102
RTVSPropertyOp14
 70
     1
102
RTVSPropertyOp15
 70
     1
102
RTVSPropertyOp16
 70
     1
102
RTVSPropertyOp17
 70
     1
102
RTVSPropertyOp18
 70
     1
102
RTVSPropertyOp19
 70
     1
102
RTVSPropertyOp20
 70
     1
102
RTVSPropertyOp21
 70
     1
102
RTVSPropertyOp22
 70
     1
102
RTVSPropertyOp23
 70
     1
102
RTVSPropertyOp24
 70
     1
102
RTVSPropertyOp25
 70
     1
102
RTVSPropertyOp26
 70
     1
102
RTVSPropertyOp27
 70
     1
102
RTVSPropertyOp28
 70
     1
102
RTVSPropertyOp29
 70
     1
102
RTVSPropertyOp30
 70
     1
102
RTVSPropertyOp31
 70
     1
102
RTVSPropertyOp32
 70
     1
102
RTVSPropertyOp33
 70
     1
102
RTVSPropertyOp34
 70
     1
102
RTVSPropertyOp35
 70
     1
102
RTVSPropertyOp36
 70
     1
102
RTVSPropertyOp37
 70
     1
102
RTVSPropertyOp38
 70
     1
102
RTVSPropertyOp39
 70
     1
102
RTVSPropertyOp40
 70
     1
102
RTVSPropertyOp41
 70
     1
102
RTVSPropertyOp42
 70
     1
102
RTVSPropertyOp43
 70
     1
102
RTVSPropertyOp44
 70
     1
102
RTVSPropertyOp45
 70
     1
102
RTVSPropertyOp46
 70
     1
102
RTVSPropertyOp47
 70
     1
102
RTVSPropertyOp48
 70
     1
102
RTVSPropertyOp49
 70
     1
102
RTVSPropertyOp50
 70
     1
102
RTVSPropertyOp51
 70
     0
102
RTVSPropertyOp52
 70
     0
102
RTVSPropertyOp53
 70
     1
102
RTVSPropertyOp54
 70
     1
102
RTVSPropertyOp55
 70
     1
102
RTVSPropertyOp56
 70
     1
102
RTVSPropertyOp57
 70
     1
102
RTVSPost2010Prop28
280
     0
102
RTVSPost2010PropOp28
 70
     1
102
RTVSPost2010Prop29
280
     1
102
RTVSPost2010PropOp29
 70
     1
102
RTVSPost2010Prop30
280
     1
102
RTVSPost2010PropOp30
 70
     1
102
RTVSPost2010Prop31
280
     0
102
RTVSPost2010PropOp31
 70
     1
102
RTVSPost2010Prop32
280
     0
102
RTVSPost2010PropOp32
 70
     1
102
RTVSPost2010Prop33
280
     0
102
RTVSPost2010PropOp33
 70
     1
102
RTVSPost2010Prop34
280
     0
102
RTVSPost2010PropOp34
 70
     1
102
RTVSPost2010Prop35
280
     0
102
RTVSPost2010PropOp35
 70
     1
102
RTVSPost2010Prop36
280
     0
102
RTVSPost2010PropOp36
 70
     1
102
RTVSPost2010Prop37
 90
       50
102
RTVSPost2010PropOp37
 70
     1
102
RTVSPost2010Prop38
140
0.0
102
RTVSPost2010PropOp38
 70
     1
102
RTVSPost2010Prop39
140
1.0
102
RTVSPost2010PropOp39
 70
     1
102
RTVSPost2010Prop40
 90
        0
102
RTVSPost2010PropOp40
 70
     1
102
RTVSPost2010Prop41ColorIndex
 90
       18
102
RTVSPost2010Prop41ColorRGB
 90
        0
102
RTVSPost2010PropOp41
 70
     1
102
RTVSPost2010Prop42
 90
       50
102
RTVSPost2010PropOp42
 70
     1
102
RTVSPost2010Prop43
 90
        3
102
RTVSPost2010PropOp43
 70
     1
102
RTVSPost2010Prop44ColorIndex
 90
        5
102
RTVSPost2010Prop44ColorRGB
 90
      255
102
RTVSPost2010PropOp44
 70
     1
102
RTVSPost2010Prop45
280
     0
102
RTVSPost2010PropOp45
 70
     1
102
RTVSPost2010Prop46
 90
       50
102
RTVSPost2010PropOp46
 70
     1
102
RTVSPost2010Prop47
 90
       50
102
RTVSPost2010PropOp47
 70
     1
102
RTVSPost2010Prop48
 90
       50
102
RTVSPost2010PropOp48
 70
     1
102
RTVSPost2010Prop49
280
     0
102
RTVSPost2010PropOp49
 70
     1
102
RTVSPost2010Prop50
 90
       50
102
RTVSPost2010PropOp50
 70
     1
102
RTVSPost2010Prop51ColorIndex
 90
      256
102
RTVSPost2010Prop51ColorRGB
 90
-16777216
102
RTVSPost2010PropOp51
 70
     0
102
RTVSPost2010Prop52
140
1.0
102
RTVSPost2010PropOp52
 70
     0
102
RTVSPost2010Prop53
 90
        2
102
RTVSPost2010PropOp53
 70
     1
102
RTVSPost2010Prop54
  1
strokes_ogs.tif
102
RTVSPost2010PropOp54
 70
     1
102
RTVSPost2010Prop55
280
     0
102
RTVSPost2010PropOp55
 70
     1
102
RTVSPost2010Prop56
140
1.0
102
RTVSPost2010PropOp56
 70
     1
102
RTVSPost2010Prop57
140
1.0
102
RTVSPost2010PropOp57
 70
     1
  0
XRECORD
  5
292
102
{ACAD_REACTORS
330
291
102
}
330
291
100
AcDbXrecord
280
     1
102
RTVSPropertyOp0
 70
     1
102
RTVSPropertyOp1
 70
     1
102
RTVSPropertyOp2
 70
     1
102
RTVSPropertyOp3
 70
     1
102
RTVSPropertyOp4
 70
     1
102
RTVSPropertyOp5
 70
     1
102
RTVSPropertyOp6
 70
     1
102
RTVSPropertyOp7
 70
     1
102
RTVSPropertyOp8
 70
     1
102
RTVSPropertyOp9
 70
     1
102
RTVSPropertyOp10
 70
     1
102
RTVSPropertyOp11
 70
     1
102
RTVSPropertyOp12
 70
     1
102
RTVSPropertyOp13
 70
     1
102
RTVSPropertyOp14
 70
     1
102
RTVSPropertyOp15
 70
     1
102
RTVSPropertyOp16
 70
     1
102
RTVSPropertyOp17
 70
     1
102
RTVSPropertyOp18
 70
     1
102
RTVSPropertyOp19
 70
     1
102
RTVSPropertyOp20
 70
     1
102
RTVSPropertyOp21
 70
     1
102
RTVSPropertyOp22
 70
     1
102
RTVSPropertyOp23
 70
     1
102
RTVSPropertyOp24
 70
     1
102
RTVSPropertyOp25
 70
     1
102
RTVSPropertyOp26
 70
     1
102
RTVSPropertyOp27
 70
     1
102
RTVSPropertyOp28
 70
     1
102
RTVSPropertyOp29
 70
     1
102
RTVSPropertyOp30
 70
     1
102
RTVSPropertyOp31
 70
     1
102
RTVSPropertyOp32
 70
     1
102
RTVSPropertyOp33
 70
     1
102
RTVSPropertyOp34
 70
     1
102
RTVSPropertyOp35
 70
     1
102
RTVSPropertyOp36
 70
     1
102
RTVSPropertyOp37
 70
     1
102
RTVSPropertyOp38
 70
     1
102
RTVSPropertyOp39
 70
     1
102
RTVSPropertyOp40
 70
     1
102
RTVSPropertyOp41
 70
     1
102
RTVSPropertyOp42
 70
     1
102
RTVSPropertyOp43
 70
     1
102
RTVSPropertyOp44
 70
     1
102
RTVSPropertyOp45
 70
     1
102
RTVSPropertyOp46
 70
     1
102
RTVSPropertyOp47
 70
     1
102
RTVSPropertyOp48
 70
     1
102
RTVSPropertyOp49
 70
     1
102
RTVSPropertyOp50
 70
     1
102
RTVSPropertyOp51
 70
     0
102
RTVSPropertyOp52
 70
     0
102
RTVSPropertyOp53
 70
     1
102
RTVSPropertyOp54
 70
     1
102
RTVSPropertyOp55
 70
     1
102
RTVSPropertyOp56
 70
     1
102
RTVSPropertyOp57
 70
     1
102
RTVSPost2010Prop28
280
     0
102
RTVSPost2010PropOp28
 70
     1
102
RTVSPost2010Prop29
280
     1
102
RTVSPost2010PropOp29
 70
     1
102
RTVSPost2010Prop30
280
     1
102
RTVSPost2010PropOp30
 70
     1
102
RTVSPost2010Prop31
280
     0
102
RTVSPost2010PropOp31
 70
     1
102
RTVSPost2010Prop32
280
     0
102
RTVSPost2010PropOp32
 70
     1
102
RTVSPost2010Prop33
280
     0
102
RTVSPost2010PropOp33
 70
     1
102
RTVSPost2010Prop34
280
     0
102
RTVSPost2010PropOp34
 70
     1
102
RTVSPost2010Prop35
280
     0
102
RTVSPost2010PropOp35
 70
     1
102
RTVSPost2010Prop36
280
     0
102
RTVSPost2010PropOp36
 70
     1
102
RTVSPost2010Prop37
 90
       50
102
RTVSPost2010PropOp37
 70
     1
102
RTVSPost2010Prop38
140
0.0
102
RTVSPost2010PropOp38
 70
     1
102
RTVSPost2010Prop39
140
1.0
102
RTVSPost2010PropOp39
 70
     1
102
RTVSPost2010Prop40
 90
        0
102
RTVSPost2010PropOp40
 70
     1
102
RTVSPost2010Prop41ColorIndex
 90
       18
102
RTVSPost2010Prop41ColorRGB
 90
        0
102
RTVSPost2010PropOp41
 70
     1
102
RTVSPost2010Prop42
 90
       50
102
RTVSPost2010PropOp42
 70
     1
102
RTVSPost2010Prop43
 90
        3
102
RTVSPost2010PropOp43
 70
     1
102
RTVSPost2010Prop44ColorIndex
 90
        5
102
RTVSPost2010Prop44ColorRGB
 90
      255
102
RTVSPost2010PropOp44
 70
     1
102
RTVSPost2010Prop45
280
     0
102
RTVSPost2010PropOp45
 70
     1
102
RTVSPost2010Prop46
 90
       50
102
RTVSPost2010PropOp46
 70
     1
102
RTVSPost2010Prop47
 90
       50
102
RTVSPost2010PropOp47
 70
     1
102
RTVSPost2010Prop48
 90
       50
102
RTVSPost2010PropOp48
 70
     1
102
RTVSPost2010Prop49
280
     0
102
RTVSPost2010PropOp49
 70
     1
102
RTVSPost2010Prop50
 90
       50
102
RTVSPost2010PropOp50
 70
     1
102
RTVSPost2010Prop51ColorIndex
 90
      256
102
RTVSPost2010Prop51ColorRGB
 90
-16777216
102
RTVSPost2010PropOp51
 70
     0
102
RTVSPost2010Prop52
140
1.0
102
RTVSPost2010PropOp52
 70
     0
102
RTVSPost2010Prop53
 90
        2
102
RTVSPost2010PropOp53
 70
     1
102
RTVSPost2010Prop54
  1
strokes_ogs.tif
102
RTVSPost2010PropOp54
 70
     1
102
RTVSPost2010Prop55
280
     0
102
RTVSPost2010PropOp55
 70
     1
102
RTVSPost2010Prop56
140
1.0
102
RTVSPost2010PropOp56
 70
     1
102
RTVSPost2010Prop57
140
1.0
102
RTVSPost2010PropOp57
 70
     1
  0
XRECORD
  5
294
102
{ACAD_REACTORS
330
293
102
}
330
293
100
AcDbXrecord
280
     1
102
RTVSPropertyOp0
 70
     1
102
RTVSPropertyOp1
 70
     1
102
RTVSPropertyOp2
 70
     1
102
RTVSPropertyOp3
 70
     1
102
RTVSPropertyOp4
 70
     1
102
RTVSPropertyOp5
 70
     1
102
RTVSPropertyOp6
 70
     1
102
RTVSPropertyOp7
 70
     1
102
RTVSPropertyOp8
 70
     1
102
RTVSPropertyOp9
 70
     1
102
RTVSPropertyOp10
 70
     1
102
RTVSPropertyOp11
 70
     1
102
RTVSPropertyOp12
 70
     1
102
RTVSPropertyOp13
 70
     1
102
RTVSPropertyOp14
 70
     1
102
RTVSPropertyOp15
 70
     1
102
RTVSPropertyOp16
 70
     1
102
RTVSPropertyOp17
 70
     1
102
RTVSPropertyOp18
 70
     1
102
RTVSPropertyOp19
 70
     1
102
RTVSPropertyOp20
 70
     1
102
RTVSPropertyOp21
 70
     1
102
RTVSPropertyOp22
 70
     1
102
RTVSPropertyOp23
 70
     1
102
RTVSPropertyOp24
 70
     1
102
RTVSPropertyOp25
 70
     1
102
RTVSPropertyOp26
 70
     1
102
RTVSPropertyOp27
 70
     1
102
RTVSPropertyOp28
 70
     1
102
RTVSPropertyOp29
 70
     1
102
RTVSPropertyOp30
 70
     1
102
RTVSPropertyOp31
 70
     1
102
RTVSPropertyOp32
 70
     1
102
RTVSPropertyOp33
 70
     1
102
RTVSPropertyOp34
 70
     1
102
RTVSPropertyOp35
 70
     1
102
RTVSPropertyOp36
 70
     1
102
RTVSPropertyOp37
 70
     1
102
RTVSPropertyOp38
 70
     1
102
RTVSPropertyOp39
 70
     1
102
RTVSPropertyOp40
 70
     1
102
RTVSPropertyOp41
 70
     1
102
RTVSPropertyOp42
 70
     1
102
RTVSPropertyOp43
 70
     1
102
RTVSPropertyOp44
 70
     1
102
RTVSPropertyOp45
 70
     1
102
RTVSPropertyOp46
 70
     1
102
RTVSPropertyOp47
 70
     1
102
RTVSPropertyOp48
 70
     1
102
RTVSPropertyOp49
 70
     1
102
RTVSPropertyOp50
 70
     1
102
RTVSPropertyOp51
 70
     0
102
RTVSPropertyOp52
 70
     0
102
RTVSPropertyOp53
 70
     1
102
RTVSPropertyOp54
 70
     1
102
RTVSPropertyOp55
 70
     1
102
RTVSPropertyOp56
 70
     1
102
RTVSPropertyOp57
 70
     1
102
RTVSPost2010Prop28
280
     0
102
RTVSPost2010PropOp28
 70
     1
102
RTVSPost2010Prop29
280
     1
102
RTVSPost2010PropOp29
 70
     1
102
RTVSPost2010Prop30
280
     1
102
RTVSPost2010PropOp30
 70
     1
102
RTVSPost2010Prop31
280
     0
102
RTVSPost2010PropOp31
 70
     1
102
RTVSPost2010Prop32
280
     0
102
RTVSPost2010PropOp32
 70
     1
102
RTVSPost2010Prop33
280
     0
102
RTVSPost2010PropOp33
 70
     1
102
RTVSPost2010Prop34
280
     0
102
RTVSPost2010PropOp34
 70
     1
102
RTVSPost2010Prop35
280
     0
102
RTVSPost2010PropOp35
 70
     1
102
RTVSPost2010Prop36
280
     0
102
RTVSPost2010PropOp36
 70
     1
102
RTVSPost2010Prop37
 90
       50
102
RTVSPost2010PropOp37
 70
     1
102
RTVSPost2010Prop38
140
0.0
102
RTVSPost2010PropOp38
 70
     1
102
RTVSPost2010Prop39
140
1.0
102
RTVSPost2010PropOp39
 70
     1
102
RTVSPost2010Prop40
 90
        0
102
RTVSPost2010PropOp40
 70
     1
102
RTVSPost2010Prop41ColorIndex
 90
       18
102
RTVSPost2010Prop41ColorRGB
 90
        0
102
RTVSPost2010PropOp41
 70
     1
102
RTVSPost2010Prop42
 90
       50
102
RTVSPost2010PropOp42
 70
     1
102
RTVSPost2010Prop43
 90
        3
102
RTVSPost2010PropOp43
 70
     1
102
RTVSPost2010Prop44ColorIndex
 90
        5
102
RTVSPost2010Prop44ColorRGB
 90
      255
102
RTVSPost2010PropOp44
 70
     1
102
RTVSPost2010Prop45
280
     0
102
RTVSPost2010PropOp45
 70
     1
102
RTVSPost2010Prop46
 90
       50
102
RTVSPost2010PropOp46
 70
     1
102
RTVSPost2010Prop47
 90
       50
102
RTVSPost2010PropOp47
 70
     1
102
RTVSPost2010Prop48
 90
       50
102
RTVSPost2010PropOp48
 70
     1
102
RTVSPost2010Prop49
280
     0
102
RTVSPost2010PropOp49
 70
     1
102
RTVSPost2010Prop50
 90
       50
102
RTVSPost2010PropOp50
 70
     1
102
RTVSPost2010Prop51ColorIndex
 90
      256
102
RTVSPost2010Prop51ColorRGB
 90
-16777216
102
RTVSPost2010PropOp51
 70
     0
102
RTVSPost2010Prop52
140
1.0
102
RTVSPost2010PropOp52
 70
     0
102
RTVSPost2010Prop53
 90
        2
102
RTVSPost2010PropOp53
 70
     1
102
RTVSPost2010Prop54
  1
strokes_ogs.tif
102
RTVSPost2010PropOp54
 70
     1
102
RTVSPost2010Prop55
280
     0
102
RTVSPost2010PropOp55
 70
     1
102
RTVSPost2010Prop56
140
1.0
102
RTVSPost2010PropOp56
 70
     1
102
RTVSPost2010Prop57
140
1.0
102
RTVSPost2010PropOp57
 70
     1
  0
XRECORD
  5
29A
102
{ACAD_REACTORS
330
299
102
}
330
299
100
AcDbXrecord
280
     1
102
RTVSPropertyOp0
 70
     1
102
RTVSPropertyOp1
 70
     1
102
RTVSPropertyOp2
 70
     1
102
RTVSPropertyOp3
 70
     1
102
RTVSPropertyOp4
 70
     1
102
RTVSPropertyOp5
 70
     1
102
RTVSPropertyOp6
 70
     1
102
RTVSPropertyOp7
 70
     1
102
RTVSPropertyOp8
 70
     1
102
RTVSPropertyOp9
 70
     1
102
RTVSPropertyOp10
 70
     1
102
RTVSPropertyOp11
 70
     1
102
RTVSPropertyOp12
 70
     1
102
RTVSPropertyOp13
 70
     1
102
RTVSPropertyOp14
 70
     1
102
RTVSPropertyOp15
 70
     1
102
RTVSPropertyOp16
 70
     1
102
RTVSPropertyOp17
 70
     1
102
RTVSPropertyOp18
 70
     1
102
RTVSPropertyOp19
 70
     1
102
RTVSPropertyOp20
 70
     1
102
RTVSPropertyOp21
 70
     1
102
RTVSPropertyOp22
 70
     1
102
RTVSPropertyOp23
 70
     1
102
RTVSPropertyOp24
 70
     1
102
RTVSPropertyOp25
 70
     1
102
RTVSPropertyOp26
 70
     1
102
RTVSPropertyOp27
 70
     1
102
RTVSPropertyOp28
 70
     1
102
RTVSPropertyOp29
 70
     1
102
RTVSPropertyOp30
 70
     1
102
RTVSPropertyOp31
 70
     1
102
RTVSPropertyOp32
 70
     1
102
RTVSPropertyOp33
 70
     1
102
RTVSPropertyOp34
 70
     1
102
RTVSPropertyOp35
 70
     1
102
RTVSPropertyOp36
 70
     1
102
RTVSPropertyOp37
 70
     1
102
RTVSPropertyOp38
 70
     1
102
RTVSPropertyOp39
 70
     1
102
RTVSPropertyOp40
 70
     1
102
RTVSPropertyOp41
 70
     1
102
RTVSPropertyOp42
 70
     1
102
RTVSPropertyOp43
 70
     1
102
RTVSPropertyOp44
 70
     1
102
RTVSPropertyOp45
 70
     1
102
RTVSPropertyOp46
 70
     1
102
RTVSPropertyOp47
 70
     1
102
RTVSPropertyOp48
 70
     1
102
RTVSPropertyOp49
 70
     1
102
RTVSPropertyOp50
 70
     1
102
RTVSPropertyOp51
 70
     0
102
RTVSPropertyOp52
 70
     0
102
RTVSPropertyOp53
 70
     1
102
RTVSPropertyOp54
 70
     1
102
RTVSPropertyOp55
 70
     1
102
RTVSPropertyOp56
 70
     1
102
RTVSPropertyOp57
 70
     1
102
RTVSPost2010Prop28
280
     0
102
RTVSPost2010PropOp28
 70
     1
102
RTVSPost2010Prop29
280
     1
102
RTVSPost2010PropOp29
 70
     1
102
RTVSPost2010Prop30
280
     1
102
RTVSPost2010PropOp30
 70
     1
102
RTVSPost2010Prop31
280
     0
102
RTVSPost2010PropOp31
 70
     1
102
RTVSPost2010Prop32
280
     0
102
RTVSPost2010PropOp32
 70
     1
102
RTVSPost2010Prop33
280
     0
102
RTVSPost2010PropOp33
 70
     1
102
RTVSPost2010Prop34
280
     0
102
RTVSPost2010PropOp34
 70
     1
102
RTVSPost2010Prop35
280
     0
102
RTVSPost2010PropOp35
 70
     1
102
RTVSPost2010Prop36
280
     0
102
RTVSPost2010PropOp36
 70
     1
102
RTVSPost2010Prop37
 90
       50
102
RTVSPost2010PropOp37
 70
     1
102
RTVSPost2010Prop38
140
0.0
102
RTVSPost2010PropOp38
 70
     1
102
RTVSPost2010Prop39
140
1.0
102
RTVSPost2010PropOp39
 70
     1
102
RTVSPost2010Prop40
 90
        0
102
RTVSPost2010PropOp40
 70
     1
102
RTVSPost2010Prop41ColorIndex
 90
       18
102
RTVSPost2010Prop41ColorRGB
 90
        0
102
RTVSPost2010PropOp41
 70
     1
102
RTVSPost2010Prop42
 90
       50
102
RTVSPost2010PropOp42
 70
     1
102
RTVSPost2010Prop43
 90
        3
102
RTVSPost2010PropOp43
 70
     1
102
RTVSPost2010Prop44ColorIndex
 90
        5
102
RTVSPost2010Prop44ColorRGB
 90
      255
102
RTVSPost2010PropOp44
 70
     1
102
RTVSPost2010Prop45
280
     0
102
RTVSPost2010PropOp45
 70
     1
102
RTVSPost2010Prop46
 90
       50
102
RTVSPost2010PropOp46
 70
     1
102
RTVSPost2010Prop47
 90
       50
102
RTVSPost2010PropOp47
 70
     1
102
RTVSPost2010Prop48
 90
       50
102
RTVSPost2010PropOp48
 70
     1
102
RTVSPost2010Prop49
280
     0
102
RTVSPost2010PropOp49
 70
     1
102
RTVSPost2010Prop50
 90
       50
102
RTVSPost2010PropOp50
 70
     1
102
RTVSPost2010Prop51ColorIndex
 90
      256
102
RTVSPost2010Prop51ColorRGB
 90
-16777216
102
RTVSPost2010PropOp51
 70
     0
102
RTVSPost2010Prop52
140
1.0
102
RTVSPost2010PropOp52
 70
     0
102
RTVSPost2010Prop53
 90
        2
102
RTVSPost2010PropOp53
 70
     1
102
RTVSPost2010Prop54
  1
strokes_ogs.tif
102
RTVSPost2010PropOp54
 70
     1
102
RTVSPost2010Prop55
280
     0
102
RTVSPost2010PropOp55
 70
     1
102
RTVSPost2010Prop56
140
1.0
102
RTVSPost2010PropOp56
 70
     1
102
RTVSPost2010Prop57
140
1.0
102
RTVSPost2010PropOp57
 70
     1
  0
XRECORD
  5
2AE
102
{ACAD_REACTORS
330
2AD
102
}
330
2AD
100
AcDbXrecord
280
     1
102
RTVSPropertyOp0
 70
     0
102
RTVSPropertyOp1
 70
     0
102
RTVSPropertyOp2
 70
     0
102
RTVSPropertyOp3
 70
     0
102
RTVSPropertyOp4
 70
     0
102
RTVSPropertyOp5
 70
     0
102
RTVSPropertyOp6
 70
     0
102
RTVSPropertyOp7
 70
     0
102
RTVSPropertyOp8
 70
     0
102
RTVSPropertyOp9
 70
     0
102
RTVSPropertyOp10
 70
     0
102
RTVSPropertyOp11
 70
     0
102
RTVSPropertyOp12
 70
     0
102
RTVSPropertyOp13
 70
     0
102
RTVSPropertyOp14
 70
     2
102
RTVSPropertyOp15
 70
     0
102
RTVSPropertyOp16
 70
     0
102
RTVSPropertyOp17
 70
     0
102
RTVSPropertyOp18
 70
     0
102
RTVSPropertyOp19
 70
     0
102
RTVSPropertyOp20
 70
     0
102
RTVSPropertyOp21
 70
     0
102
RTVSPropertyOp22
 70
     0
102
RTVSPropertyOp23
 70
     0
102
RTVSPropertyOp24
 70
     0
102
RTVSPropertyOp25
 70
     0
102
RTVSPropertyOp26
 70
     0
102
RTVSPropertyOp27
 70
     0
102
RTVSPropertyOp28
 70
     0
102
RTVSPropertyOp29
 70
     0
102
RTVSPropertyOp30
 70
     0
102
RTVSPropertyOp31
 70
     0
102
RTVSPropertyOp32
 70
     0
102
RTVSPropertyOp33
 70
     0
102
RTVSPropertyOp34
 70
     0
102
RTVSPropertyOp35
 70
     0
102
RTVSPropertyOp36
 70
     0
102
RTVSPropertyOp37
 70
     0
102
RTVSPropertyOp38
 70
     0
102
RTVSPropertyOp39
 70
     0
102
RTVSPropertyOp40
 70
     0
102
RTVSPropertyOp41
 70
     0
102
RTVSPropertyOp42
 70
     0
102
RTVSPropertyOp43
 70
     0
102
RTVSPropertyOp44
 70
     0
102
RTVSPropertyOp45
 70
     0
102
RTVSPropertyOp46
 70
     0
102
RTVSPropertyOp47
 70
     0
102
RTVSPropertyOp48
 70
     0
102
RTVSPropertyOp49
 70
     0
102
RTVSPropertyOp50
 70
     0
102
RTVSPropertyOp51
 70
     0
102
RTVSPropertyOp52
 70
     0
102
RTVSPropertyOp53
 70
     0
102
RTVSPropertyOp54
 70
     0
102
RTVSPropertyOp55
 70
     0
102
RTVSPropertyOp56
 70
     0
102
RTVSPropertyOp57
 70
     0
102
RTVSPost2010Prop28
280
     0
102
RTVSPost2010PropOp28
 70
     0
102
RTVSPost2010Prop29
280
     1
102
RTVSPost2010PropOp29
 70
     0
102
RTVSPost2010Prop30
280
     1
102
RTVSPost2010PropOp30
 70
     0
102
RTVSPost2010Prop31
280
     0
102
RTVSPost2010PropOp31
 70
     0
102
RTVSPost2010Prop32
280
     0
102
RTVSPost2010PropOp32
 70
     0
102
RTVSPost2010Prop33
280
     0
102
RTVSPost2010PropOp33
 70
     0
102
RTVSPost2010Prop34
280
     0
102
RTVSPost2010PropOp34
 70
     0
102
RTVSPost2010Prop35
280
     0
102
RTVSPost2010PropOp35
 70
     0
102
RTVSPost2010Prop36
280
     0
102
RTVSPost2010PropOp36
 70
     0
102
RTVSPost2010Prop37
 90
       50
102
RTVSPost2010PropOp37
 70
     0
102
RTVSPost2010Prop38
140
0.0
102
RTVSPost2010PropOp38
 70
     0
102
RTVSPost2010Prop39
140
1.0
102
RTVSPost2010PropOp39
 70
     0
102
RTVSPost2010Prop40
 90
        0
102
RTVSPost2010PropOp40
 70
     0
102
RTVSPost2010Prop41ColorIndex
 90
       18
102
RTVSPost2010Prop41ColorRGB
 90
        0
102
RTVSPost2010PropOp41
 70
     0
102
RTVSPost2010Prop42
 90
       50
102
RTVSPost2010PropOp42
 70
     0
102
RTVSPost2010Prop43
 90
        3
102
RTVSPost2010PropOp43
 70
     0
102
RTVSPost2010Prop44ColorIndex
 90
        5
102
RTVSPost2010Prop44ColorRGB
 90
      255
102
RTVSPost2010PropOp44
 70
     0
102
RTVSPost2010Prop45
280
     0
102
RTVSPost2010PropOp45
 70
     0
102
RTVSPost2010Prop46
 90
       50
102
RTVSPost2010PropOp46
 70
     0
102
RTVSPost2010Prop47
 90
       50
102
RTVSPost2010PropOp47
 70
     0
102
RTVSPost2010Prop48
 90
       50
102
RTVSPost2010PropOp48
 70
     0
102
RTVSPost2010Prop49
280
     0
102
RTVSPost2010PropOp49
 70
     0
102
RTVSPost2010Prop50
 90
       50
102
RTVSPost2010PropOp50
 70
     0
102
RTVSPost2010Prop51ColorIndex
 90
      256
102
RTVSPost2010Prop51ColorRGB
 90
-16777216
102
RTVSPost2010PropOp51
 70
     0
102
RTVSPost2010Prop52
140
1.0
102
RTVSPost2010PropOp52
 70
     0
102
RTVSPost2010Prop53
 90
        2
102
RTVSPost2010PropOp53
 70
     0
102
RTVSPost2010Prop54
  1
strokes_ogs.tif
102
RTVSPost2010PropOp54
 70
     0
102
RTVSPost2010Prop55
280
     0
102
RTVSPost2010PropOp55
 70
     0
102
RTVSPost2010Prop56
140
1.0
102
RTVSPost2010PropOp56
 70
     0
102
RTVSPost2010Prop57
140
1.0
102
RTVSPost2010PropOp57
 70
     0
  0
XRECORD
  5
2A8
102
{ACAD_REACTORS
330
2A7
102
}
330
2A7
100
AcDbXrecord
280
     1
102
RTVSPropertyOp0
 70
     1
102
RTVSPropertyOp1
 70
     1
102
RTVSPropertyOp2
 70
     1
102
RTVSPropertyOp3
 70
     1
102
RTVSPropertyOp4
 70
     1
102
RTVSPropertyOp5
 70
     1
102
RTVSPropertyOp6
 70
     1
102
RTVSPropertyOp7
 70
     1
102
RTVSPropertyOp8
 70
     1
102
RTVSPropertyOp9
 70
     1
102
RTVSPropertyOp10
 70
     1
102
RTVSPropertyOp11
 70
     1
102
RTVSPropertyOp12
 70
     1
102
RTVSPropertyOp13
 70
     1
102
RTVSPropertyOp14
 70
     1
102
RTVSPropertyOp15
 70
     1
102
RTVSPropertyOp16
 70
     1
102
RTVSPropertyOp17
 70
     1
102
RTVSPropertyOp18
 70
     1
102
RTVSPropertyOp19
 70
     1
102
RTVSPropertyOp20
 70
     1
102
RTVSPropertyOp21
 70
     1
102
RTVSPropertyOp22
 70
     1
102
RTVSPropertyOp23
 70
     1
102
RTVSPropertyOp24
 70
     1
102
RTVSPropertyOp25
 70
     1
102
RTVSPropertyOp26
 70
     1
102
RTVSPropertyOp27
 70
     1
102
RTVSPropertyOp28
 70
     1
102
RTVSPropertyOp29
 70
     1
102
RTVSPropertyOp30
 70
     1
102
RTVSPropertyOp31
 70
     1
102
RTVSPropertyOp32
 70
     1
102
RTVSPropertyOp33
 70
     1
102
RTVSPropertyOp34
 70
     1
102
RTVSPropertyOp35
 70
     1
102
RTVSPropertyOp36
 70
     1
102
RTVSPropertyOp37
 70
     1
102
RTVSPropertyOp38
 70
     1
102
RTVSPropertyOp39
 70
     1
102
RTVSPropertyOp40
 70
     1
102
RTVSPropertyOp41
 70
     1
102
RTVSPropertyOp42
 70
     1
102
RTVSPropertyOp43
 70
     1
102
RTVSPropertyOp44
 70
     1
102
RTVSPropertyOp45
 70
     1
102
RTVSPropertyOp46
 70
     1
102
RTVSPropertyOp47
 70
     1
102
RTVSPropertyOp48
 70
     1
102
RTVSPropertyOp49
 70
     1
102
RTVSPropertyOp50
 70
     1
102
RTVSPropertyOp51
 70
     0
102
RTVSPropertyOp52
 70
     0
102
RTVSPropertyOp53
 70
     1
102
RTVSPropertyOp54
 70
     1
102
RTVSPropertyOp55
 70
     1
102
RTVSPropertyOp56
 70
     1
102
RTVSPropertyOp57
 70
     1
102
RTVSPost2010Prop28
280
     0
102
RTVSPost2010PropOp28
 70
     1
102
RTVSPost2010Prop29
280
     1
102
RTVSPost2010PropOp29
 70
     1
102
RTVSPost2010Prop30
280
     1
102
RTVSPost2010PropOp30
 70
     1
102
RTVSPost2010Prop31
280
     0
102
RTVSPost2010PropOp31
 70
     1
102
RTVSPost2010Prop32
280
     0
102
RTVSPost2010PropOp32
 70
     1
102
RTVSPost2010Prop33
280
     0
102
RTVSPost2010PropOp33
 70
     1
102
RTVSPost2010Prop34
280
     0
102
RTVSPost2010PropOp34
 70
     1
102
RTVSPost2010Prop35
280
     0
102
RTVSPost2010PropOp35
 70
     1
102
RTVSPost2010Prop36
280
     0
102
RTVSPost2010PropOp36
 70
     1
102
RTVSPost2010Prop37
 90
       50
102
RTVSPost2010PropOp37
 70
     1
102
RTVSPost2010Prop38
140
0.0
102
RTVSPost2010PropOp38
 70
     1
102
RTVSPost2010Prop39
140
1.0
102
RTVSPost2010PropOp39
 70
     1
102
RTVSPost2010Prop40
 90
        0
102
RTVSPost2010PropOp40
 70
     1
102
RTVSPost2010Prop41ColorIndex
 90
       18
102
RTVSPost2010Prop41ColorRGB
 90
        0
102
RTVSPost2010PropOp41
 70
     1
102
RTVSPost2010Prop42
 90
       50
102
RTVSPost2010PropOp42
 70
     1
102
RTVSPost2010Prop43
 90
        3
102
RTVSPost2010PropOp43
 70
     1
102
RTVSPost2010Prop44ColorIndex
 90
        5
102
RTVSPost2010Prop44ColorRGB
 90
      255
102
RTVSPost2010PropOp44
 70
     1
102
RTVSPost2010Prop45
280
     0
102
RTVSPost2010PropOp45
 70
     1
102
RTVSPost2010Prop46
 90
       50
102
RTVSPost2010PropOp46
 70
     1
102
RTVSPost2010Prop47
 90
       50
102
RTVSPost2010PropOp47
 70
     1
102
RTVSPost2010Prop48
 90
       50
102
RTVSPost2010PropOp48
 70
     1
102
RTVSPost2010Prop49
280
     0
102
RTVSPost2010PropOp49
 70
     1
102
RTVSPost2010Prop50
 90
       50
102
RTVSPost2010PropOp50
 70
     1
102
RTVSPost2010Prop51ColorIndex
 90
      256
102
RTVSPost2010Prop51ColorRGB
 90
-16777216
102
RTVSPost2010PropOp51
 70
     0
102
RTVSPost2010Prop52
140
1.0
102
RTVSPost2010PropOp52
 70
     0
102
RTVSPost2010Prop53
 90
        2
102
RTVSPost2010PropOp53
 70
     1
102
RTVSPost2010Prop54
  1
strokes_ogs.tif
102
RTVSPost2010PropOp54
 70
     1
102
RTVSPost2010Prop55
280
     0
102
RTVSPost2010PropOp55
 70
     1
102
RTVSPost2010Prop56
140
1.0
102
RTVSPost2010PropOp56
 70
     1
102
RTVSPost2010Prop57
140
1.0
102
RTVSPost2010PropOp57
 70
     1
  0
XRECORD
  5
2B0
102
{ACAD_REACTORS
330
2AF
102
}
330
2AF
100
AcDbXrecord
280
     1
102
RTVSPropertyOp0
 70
     0
102
RTVSPropertyOp1
 70
     0
102
RTVSPropertyOp2
 70
     0
102
RTVSPropertyOp3
 70
     0
102
RTVSPropertyOp4
 70
     0
102
RTVSPropertyOp5
 70
     0
102
RTVSPropertyOp6
 70
     0
102
RTVSPropertyOp7
 70
     0
102
RTVSPropertyOp8
 70
     0
102
RTVSPropertyOp9
 70
     0
102
RTVSPropertyOp10
 70
     0
102
RTVSPropertyOp11
 70
     0
102
RTVSPropertyOp12
 70
     0
102
RTVSPropertyOp13
 70
     0
102
RTVSPropertyOp14
 70
     2
102
RTVSPropertyOp15
 70
     0
102
RTVSPropertyOp16
 70
     0
102
RTVSPropertyOp17
 70
     0
102
RTVSPropertyOp18
 70
     0
102
RTVSPropertyOp19
 70
     0
102
RTVSPropertyOp20
 70
     0
102
RTVSPropertyOp21
 70
     0
102
RTVSPropertyOp22
 70
     0
102
RTVSPropertyOp23
 70
     0
102
RTVSPropertyOp24
 70
     0
102
RTVSPropertyOp25
 70
     0
102
RTVSPropertyOp26
 70
     0
102
RTVSPropertyOp27
 70
     0
102
RTVSPropertyOp28
 70
     0
102
RTVSPropertyOp29
 70
     0
102
RTVSPropertyOp30
 70
     0
102
RTVSPropertyOp31
 70
     0
102
RTVSPropertyOp32
 70
     0
102
RTVSPropertyOp33
 70
     0
102
RTVSPropertyOp34
 70
     0
102
RTVSPropertyOp35
 70
     0
102
RTVSPropertyOp36
 70
     0
102
RTVSPropertyOp37
 70
     0
102
RTVSPropertyOp38
 70
     0
102
RTVSPropertyOp39
 70
     0
102
RTVSPropertyOp40
 70
     0
102
RTVSPropertyOp41
 70
     0
102
RTVSPropertyOp42
 70
     0
102
RTVSPropertyOp43
 70
     0
102
RTVSPropertyOp44
 70
     0
102
RTVSPropertyOp45
 70
     0
102
RTVSPropertyOp46
 70
     0
102
RTVSPropertyOp47
 70
     0
102
RTVSPropertyOp48
 70
     0
102
RTVSPropertyOp49
 70
     0
102
RTVSPropertyOp50
 70
     0
102
RTVSPropertyOp51
 70
     0
102
RTVSPropertyOp52
 70
     0
102
RTVSPropertyOp53
 70
     0
102
RTVSPropertyOp54
 70
     0
102
RTVSPropertyOp55
 70
     0
102
RTVSPropertyOp56
 70
     0
102
RTVSPropertyOp57
 70
     0
102
RTVSPost2010Prop28
280
     0
102
RTVSPost2010PropOp28
 70
     0
102
RTVSPost2010Prop29
280
     1
102
RTVSPost2010PropOp29
 70
     0
102
RTVSPost2010Prop30
280
     1
102
RTVSPost2010PropOp30
 70
     0
102
RTVSPost2010Prop31
280
     0
102
RTVSPost2010PropOp31
 70
     0
102
RTVSPost2010Prop32
280
     0
102
RTVSPost2010PropOp32
 70
     0
102
RTVSPost2010Prop33
280
     0
102
RTVSPost2010PropOp33
 70
     0
102
RTVSPost2010Prop34
280
     0
102
RTVSPost2010PropOp34
 70
     0
102
RTVSPost2010Prop35
280
     0
102
RTVSPost2010PropOp35
 70
     0
102
RTVSPost2010Prop36
280
     0
102
RTVSPost2010PropOp36
 70
     0
102
RTVSPost2010Prop37
 90
       50
102
RTVSPost2010PropOp37
 70
     0
102
RTVSPost2010Prop38
140
0.0
102
RTVSPost2010PropOp38
 70
     0
102
RTVSPost2010Prop39
140
1.0
102
RTVSPost2010PropOp39
 70
     0
102
RTVSPost2010Prop40
 90
        0
102
RTVSPost2010PropOp40
 70
     0
102
RTVSPost2010Prop41ColorIndex
 90
       18
102
RTVSPost2010Prop41ColorRGB
 90
        0
102
RTVSPost2010PropOp41
 70
     0
102
RTVSPost2010Prop42
 90
       50
102
RTVSPost2010PropOp42
 70
     0
102
RTVSPost2010Prop43
 90
        3
102
RTVSPost2010PropOp43
 70
     0
102
RTVSPost2010Prop44ColorIndex
 90
        5
102
RTVSPost2010Prop44ColorRGB
 90
      255
102
RTVSPost2010PropOp44
 70
     0
102
RTVSPost2010Prop45
280
     0
102
RTVSPost2010PropOp45
 70
     0
102
RTVSPost2010Prop46
 90
       50
102
RTVSPost2010PropOp46
 70
     0
102
RTVSPost2010Prop47
 90
       50
102
RTVSPost2010PropOp47
 70
     0
102
RTVSPost2010Prop48
 90
       50
102
RTVSPost2010PropOp48
 70
     0
102
RTVSPost2010Prop49
280
     0
102
RTVSPost2010PropOp49
 70
     0
102
RTVSPost2010Prop50
 90
       50
102
RTVSPost2010PropOp50
 70
     0
102
RTVSPost2010Prop51ColorIndex
 90
      256
102
RTVSPost2010Prop51ColorRGB
 90
-16777216
102
RTVSPost2010PropOp51
 70
     0
102
RTVSPost2010Prop52
140
1.0
102
RTVSPost2010PropOp52
 70
     0
102
RTVSPost2010Prop53
 90
        2
102
RTVSPost2010PropOp53
 70
     0
102
RTVSPost2010Prop54
  1
strokes_ogs.tif
102
RTVSPost2010PropOp54
 70
     0
102
RTVSPost2010Prop55
280
     0
102
RTVSPost2010PropOp55
 70
     0
102
RTVSPost2010Prop56
140
1.0
102
RTVSPost2010PropOp56
 70
     0
102
RTVSPost2010Prop57
140
1.0
102
RTVSPost2010PropOp57
 70
     0
  0
XRECORD
  5
29E
102
{ACAD_REACTORS
330
29D
102
}
330
29D
100
AcDbXrecord
280
     1
102
RTVSPropertyOp0
 70
     1
102
RTVSPropertyOp1
 70
     1
102
RTVSPropertyOp2
 70
     1
102
RTVSPropertyOp3
 70
     1
102
RTVSPropertyOp4
 70
     1
102
RTVSPropertyOp5
 70
     1
102
RTVSPropertyOp6
 70
     1
102
RTVSPropertyOp7
 70
     1
102
RTVSPropertyOp8
 70
     1
102
RTVSPropertyOp9
 70
     1
102
RTVSPropertyOp10
 70
     1
102
RTVSPropertyOp11
 70
     1
102
RTVSPropertyOp12
 70
     1
102
RTVSPropertyOp13
 70
     1
102
RTVSPropertyOp14
 70
     1
102
RTVSPropertyOp15
 70
     1
102
RTVSPropertyOp16
 70
     1
102
RTVSPropertyOp17
 70
     1
102
RTVSPropertyOp18
 70
     1
102
RTVSPropertyOp19
 70
     1
102
RTVSPropertyOp20
 70
     1
102
RTVSPropertyOp21
 70
     1
102
RTVSPropertyOp22
 70
     1
102
RTVSPropertyOp23
 70
     1
102
RTVSPropertyOp24
 70
     1
102
RTVSPropertyOp25
 70
     1
102
RTVSPropertyOp26
 70
     1
102
RTVSPropertyOp27
 70
     1
102
RTVSPropertyOp28
 70
     1
102
RTVSPropertyOp29
 70
     1
102
RTVSPropertyOp30
 70
     1
102
RTVSPropertyOp31
 70
     1
102
RTVSPropertyOp32
 70
     1
102
RTVSPropertyOp33
 70
     1
102
RTVSPropertyOp34
 70
     1
102
RTVSPropertyOp35
 70
     1
102
RTVSPropertyOp36
 70
     1
102
RTVSPropertyOp37
 70
     1
102
RTVSPropertyOp38
 70
     1
102
RTVSPropertyOp39
 70
     1
102
RTVSPropertyOp40
 70
     1
102
RTVSPropertyOp41
 70
     1
102
RTVSPropertyOp42
 70
     1
102
RTVSPropertyOp43
 70
     1
102
RTVSPropertyOp44
 70
     1
102
RTVSPropertyOp45
 70
     1
102
RTVSPropertyOp46
 70
     1
102
RTVSPropertyOp47
 70
     1
102
RTVSPropertyOp48
 70
     1
102
RTVSPropertyOp49
 70
     1
102
RTVSPropertyOp50
 70
     1
102
RTVSPropertyOp51
 70
     0
102
RTVSPropertyOp52
 70
     0
102
RTVSPropertyOp53
 70
     1
102
RTVSPropertyOp54
 70
     1
102
RTVSPropertyOp55
 70
     1
102
RTVSPropertyOp56
 70
     1
102
RTVSPropertyOp57
 70
     1
102
RTVSPost2010Prop28
280
     0
102
RTVSPost2010PropOp28
 70
     1
102
RTVSPost2010Prop29
280
     1
102
RTVSPost2010PropOp29
 70
     1
102
RTVSPost2010Prop30
280
     1
102
RTVSPost2010PropOp30
 70
     1
102
RTVSPost2010Prop31
280
     0
102
RTVSPost2010PropOp31
 70
     1
102
RTVSPost2010Prop32
280
     0
102
RTVSPost2010PropOp32
 70
     1
102
RTVSPost2010Prop33
280
     0
102
RTVSPost2010PropOp33
 70
     1
102
RTVSPost2010Prop34
280
     0
102
RTVSPost2010PropOp34
 70
     1
102
RTVSPost2010Prop35
280
     0
102
RTVSPost2010PropOp35
 70
     1
102
RTVSPost2010Prop36
280
     0
102
RTVSPost2010PropOp36
 70
     1
102
RTVSPost2010Prop37
 90
       50
102
RTVSPost2010PropOp37
 70
     1
102
RTVSPost2010Prop38
140
0.0
102
RTVSPost2010PropOp38
 70
     1
102
RTVSPost2010Prop39
140
1.0
102
RTVSPost2010PropOp39
 70
     1
102
RTVSPost2010Prop40
 90
        0
102
RTVSPost2010PropOp40
 70
     1
102
RTVSPost2010Prop41ColorIndex
 90
       18
102
RTVSPost2010Prop41ColorRGB
 90
        0
102
RTVSPost2010PropOp41
 70
     1
102
RTVSPost2010Prop42
 90
       50
102
RTVSPost2010PropOp42
 70
     1
102
RTVSPost2010Prop43
 90
        3
102
RTVSPost2010PropOp43
 70
     1
102
RTVSPost2010Prop44ColorIndex
 90
        5
102
RTVSPost2010Prop44ColorRGB
 90
      255
102
RTVSPost2010PropOp44
 70
     1
102
RTVSPost2010Prop45
280
     0
102
RTVSPost2010PropOp45
 70
     1
102
RTVSPost2010Prop46
 90
       50
102
RTVSPost2010PropOp46
 70
     1
102
RTVSPost2010Prop47
 90
       50
102
RTVSPost2010PropOp47
 70
     1
102
RTVSPost2010Prop48
 90
       50
102
RTVSPost2010PropOp48
 70
     1
102
RTVSPost2010Prop49
280
     0
102
RTVSPost2010PropOp49
 70
     1
102
RTVSPost2010Prop50
 90
       50
102
RTVSPost2010PropOp50
 70
     1
102
RTVSPost2010Prop51ColorIndex
 90
      256
102
RTVSPost2010Prop51ColorRGB
 90
-16777216
102
RTVSPost2010PropOp51
 70
     0
102
RTVSPost2010Prop52
140
1.0
102
RTVSPost2010PropOp52
 70
     0
102
RTVSPost2010Prop53
 90
        2
102
RTVSPost2010PropOp53
 70
     1
102
RTVSPost2010Prop54
  1
strokes_ogs.tif
102
RTVSPost2010PropOp54
 70
     1
102
RTVSPost2010Prop55
280
     0
102
RTVSPost2010PropOp55
 70
     1
102
RTVSPost2010Prop56
140
1.0
102
RTVSPost2010PropOp56
 70
     1
102
RTVSPost2010Prop57
140
1.0
102
RTVSPost2010PropOp57
 70
     1
  0
XRECORD
  5
2BC
102
{ACAD_REACTORS
330
2BB
102
}
330
2BB
100
AcDbXrecord
280
     1
102
RTVSPropertyOp0
 70
     1
102
RTVSPropertyOp1
 70
     1
102
RTVSPropertyOp2
 70
     1
102
RTVSPropertyOp3
 70
     1
102
RTVSPropertyOp4
 70
     1
102
RTVSPropertyOp5
 70
     1
102
RTVSPropertyOp6
 70
     1
102
RTVSPropertyOp7
 70
     1
102
RTVSPropertyOp8
 70
     1
102
RTVSPropertyOp9
 70
     1
102
RTVSPropertyOp10
 70
     1
102
RTVSPropertyOp11
 70
     1
102
RTVSPropertyOp12
 70
     1
102
RTVSPropertyOp13
 70
     1
102
RTVSPropertyOp14
 70
     1
102
RTVSPropertyOp15
 70
     1
102
RTVSPropertyOp16
 70
     1
102
RTVSPropertyOp17
 70
     1
102
RTVSPropertyOp18
 70
     1
102
RTVSPropertyOp19
 70
     1
102
RTVSPropertyOp20
 70
     1
102
RTVSPropertyOp21
 70
     1
102
RTVSPropertyOp22
 70
     1
102
RTVSPropertyOp23
 70
     1
102
RTVSPropertyOp24
 70
     1
102
RTVSPropertyOp25
 70
     1
102
RTVSPropertyOp26
 70
     1
102
RTVSPropertyOp27
 70
     1
102
RTVSPropertyOp28
 70
     1
102
RTVSPropertyOp29
 70
     1
102
RTVSPropertyOp30
 70
     1
102
RTVSPropertyOp31
 70
     1
102
RTVSPropertyOp32
 70
     1
102
RTVSPropertyOp33
 70
     1
102
RTVSPropertyOp34
 70
     1
102
RTVSPropertyOp35
 70
     1
102
RTVSPropertyOp36
 70
     1
102
RTVSPropertyOp37
 70
     1
102
RTVSPropertyOp38
 70
     1
102
RTVSPropertyOp39
 70
     1
102
RTVSPropertyOp40
 70
     1
102
RTVSPropertyOp41
 70
     1
102
RTVSPropertyOp42
 70
     1
102
RTVSPropertyOp43
 70
     1
102
RTVSPropertyOp44
 70
     1
102
RTVSPropertyOp45
 70
     1
102
RTVSPropertyOp46
 70
     1
102
RTVSPropertyOp47
 70
     1
102
RTVSPropertyOp48
 70
     1
102
RTVSPropertyOp49
 70
     1
102
RTVSPropertyOp50
 70
     1
102
RTVSPropertyOp51
 70
     0
102
RTVSPropertyOp52
 70
     0
102
RTVSPropertyOp53
 70
     1
102
RTVSPropertyOp54
 70
     1
102
RTVSPropertyOp55
 70
     1
102
RTVSPropertyOp56
 70
     1
102
RTVSPropertyOp57
 70
     1
102
RTVSPost2010Prop28
280
     0
102
RTVSPost2010PropOp28
 70
     1
102
RTVSPost2010Prop29
280
     1
102
RTVSPost2010PropOp29
 70
     1
102
RTVSPost2010Prop30
280
     1
102
RTVSPost2010PropOp30
 70
     1
102
RTVSPost2010Prop31
280
     0
102
RTVSPost2010PropOp31
 70
     1
102
RTVSPost2010Prop32
280
     0
102
RTVSPost2010PropOp32
 70
     1
102
RTVSPost2010Prop33
280
     0
102
RTVSPost2010PropOp33
 70
     1
102
RTVSPost2010Prop34
280
     0
102
RTVSPost2010PropOp34
 70
     1
102
RTVSPost2010Prop35
280
     0
102
RTVSPost2010PropOp35
 70
     1
102
RTVSPost2010Prop36
280
     0
102
RTVSPost2010PropOp36
 70
     1
102
RTVSPost2010Prop37
 90
       50
102
RTVSPost2010PropOp37
 70
     1
102
RTVSPost2010Prop38
140
0.0
102
RTVSPost2010PropOp38
 70
     1
102
RTVSPost2010Prop39
140
1.0
102
RTVSPost2010PropOp39
 70
     1
102
RTVSPost2010Prop40
 90
        0
102
RTVSPost2010PropOp40
 70
     1
102
RTVSPost2010Prop41ColorIndex
 90
       18
102
RTVSPost2010Prop41ColorRGB
 90
        0
102
RTVSPost2010PropOp41
 70
     1
102
RTVSPost2010Prop42
 90
       50
102
RTVSPost2010PropOp42
 70
     1
102
RTVSPost2010Prop43
 90
        3
102
RTVSPost2010PropOp43
 70
     1
102
RTVSPost2010Prop44ColorIndex
 90
        5
102
RTVSPost2010Prop44ColorRGB
 90
      255
102
RTVSPost2010PropOp44
 70
     1
102
RTVSPost2010Prop45
280
     0
102
RTVSPost2010PropOp45
 70
     1
102
RTVSPost2010Prop46
 90
       50
102
RTVSPost2010PropOp46
 70
     1
102
RTVSPost2010Prop47
 90
       50
102
RTVSPost2010PropOp47
 70
     1
102
RTVSPost2010Prop48
 90
       50
102
RTVSPost2010PropOp48
 70
     1
102
RTVSPost2010Prop49
280
     0
102
RTVSPost2010PropOp49
 70
     1
102
RTVSPost2010Prop50
 90
       50
102
RTVSPost2010PropOp50
 70
     1
102
RTVSPost2010Prop51ColorIndex
 90
      256
102
RTVSPost2010Prop51ColorRGB
 90
-16777216
102
RTVSPost2010PropOp51
 70
     0
102
RTVSPost2010Prop52
140
1.0
102
RTVSPost2010PropOp52
 70
     0
102
RTVSPost2010Prop53
 90
        2
102
RTVSPost2010PropOp53
 70
     1
102
RTVSPost2010Prop54
  1
strokes_ogs.tif
102
RTVSPost2010PropOp54
 70
     1
102
RTVSPost2010Prop55
280
     0
102
RTVSPost2010PropOp55
 70
     1
102
RTVSPost2010Prop56
140
1.0
102
RTVSPost2010PropOp56
 70
     1
102
RTVSPost2010Prop57
140
1.0
102
RTVSPost2010PropOp57
 70
     1
  0
XRECORD
  5
2BA
102
{ACAD_REACTORS
330
2B9
102
}
330
2B9
100
AcDbXrecord
280
     1
102
RTVSPropertyOp0
 70
     1
102
RTVSPropertyOp1
 70
     1
102
RTVSPropertyOp2
 70
     1
102
RTVSPropertyOp3
 70
     1
102
RTVSPropertyOp4
 70
     1
102
RTVSPropertyOp5
 70
     1
102
RTVSPropertyOp6
 70
     1
102
RTVSPropertyOp7
 70
     1
102
RTVSPropertyOp8
 70
     1
102
RTVSPropertyOp9
 70
     1
102
RTVSPropertyOp10
 70
     1
102
RTVSPropertyOp11
 70
     1
102
RTVSPropertyOp12
 70
     1
102
RTVSPropertyOp13
 70
     1
102
RTVSPropertyOp14
 70
     1
102
RTVSPropertyOp15
 70
     1
102
RTVSPropertyOp16
 70
     1
102
RTVSPropertyOp17
 70
     1
102
RTVSPropertyOp18
 70
     1
102
RTVSPropertyOp19
 70
     1
102
RTVSPropertyOp20
 70
     1
102
RTVSPropertyOp21
 70
     1
102
RTVSPropertyOp22
 70
     1
102
RTVSPropertyOp23
 70
     1
102
RTVSPropertyOp24
 70
     1
102
RTVSPropertyOp25
 70
     1
102
RTVSPropertyOp26
 70
     1
102
RTVSPropertyOp27
 70
     1
102
RTVSPropertyOp28
 70
     1
102
RTVSPropertyOp29
 70
     1
102
RTVSPropertyOp30
 70
     1
102
RTVSPropertyOp31
 70
     1
102
RTVSPropertyOp32
 70
     1
102
RTVSPropertyOp33
 70
     1
102
RTVSPropertyOp34
 70
     1
102
RTVSPropertyOp35
 70
     1
102
RTVSPropertyOp36
 70
     1
102
RTVSPropertyOp37
 70
     1
102
RTVSPropertyOp38
 70
     1
102
RTVSPropertyOp39
 70
     1
102
RTVSPropertyOp40
 70
     1
102
RTVSPropertyOp41
 70
     1
102
RTVSPropertyOp42
 70
     1
102
RTVSPropertyOp43
 70
     1
102
RTVSPropertyOp44
 70
     1
102
RTVSPropertyOp45
 70
     1
102
RTVSPropertyOp46
 70
     1
102
RTVSPropertyOp47
 70
     1
102
RTVSPropertyOp48
 70
     1
102
RTVSPropertyOp49
 70
     1
102
RTVSPropertyOp50
 70
     1
102
RTVSPropertyOp51
 70
     0
102
RTVSPropertyOp52
 70
     0
102
RTVSPropertyOp53
 70
     1
102
RTVSPropertyOp54
 70
     1
102
RTVSPropertyOp55
 70
     1
102
RTVSPropertyOp56
 70
     1
102
RTVSPropertyOp57
 70
     1
102
RTVSPost2010Prop28
280
     0
102
RTVSPost2010PropOp28
 70
     1
102
RTVSPost2010Prop29
280
     1
102
RTVSPost2010PropOp29
 70
     1
102
RTVSPost2010Prop30
280
     1
102
RTVSPost2010PropOp30
 70
     1
102
RTVSPost2010Prop31
280
     0
102
RTVSPost2010PropOp31
 70
     1
102
RTVSPost2010Prop32
280
     0
102
RTVSPost2010PropOp32
 70
     1
102
RTVSPost2010Prop33
280
     0
102
RTVSPost2010PropOp33
 70
     1
102
RTVSPost2010Prop34
280
     0
102
RTVSPost2010PropOp34
 70
     1
102
RTVSPost2010Prop35
280
     0
102
RTVSPost2010PropOp35
 70
     1
102
RTVSPost2010Prop36
280
     0
102
RTVSPost2010PropOp36
 70
     1
102
RTVSPost2010Prop37
 90
       50
102
RTVSPost2010PropOp37
 70
     1
102
RTVSPost2010Prop38
140
0.0
102
RTVSPost2010PropOp38
 70
     1
102
RTVSPost2010Prop39
140
1.0
102
RTVSPost2010PropOp39
 70
     1
102
RTVSPost2010Prop40
 90
        0
102
RTVSPost2010PropOp40
 70
     1
102
RTVSPost2010Prop41ColorIndex
 90
       18
102
RTVSPost2010Prop41ColorRGB
 90
        0
102
RTVSPost2010PropOp41
 70
     1
102
RTVSPost2010Prop42
 90
       50
102
RTVSPost2010PropOp42
 70
     1
102
RTVSPost2010Prop43
 90
        3
102
RTVSPost2010PropOp43
 70
     1
102
RTVSPost2010Prop44ColorIndex
 90
        5
102
RTVSPost2010Prop44ColorRGB
 90
      255
102
RTVSPost2010PropOp44
 70
     1
102
RTVSPost2010Prop45
280
     0
102
RTVSPost2010PropOp45
 70
     1
102
RTVSPost2010Prop46
 90
       50
102
RTVSPost2010PropOp46
 70
     1
102
RTVSPost2010Prop47
 90
       50
102
RTVSPost2010PropOp47
 70
     1
102
RTVSPost2010Prop48
 90
       50
102
RTVSPost2010PropOp48
 70
     1
102
RTVSPost2010Prop49
280
     0
102
RTVSPost2010PropOp49
 70
     1
102
RTVSPost2010Prop50
 90
       50
102
RTVSPost2010PropOp50
 70
     1
102
RTVSPost2010Prop51ColorIndex
 90
      256
102
RTVSPost2010Prop51ColorRGB
 90
-16777216
102
RTVSPost2010PropOp51
 70
     0
102
RTVSPost2010Prop52
140
1.0
102
RTVSPost2010PropOp52
 70
     0
102
RTVSPost2010Prop53
 90
        2
102
RTVSPost2010PropOp53
 70
     1
102
RTVSPost2010Prop54
  1
strokes_ogs.tif
102
RTVSPost2010PropOp54
 70
     1
102
RTVSPost2010Prop55
280
     0
102
RTVSPost2010PropOp55
 70
     1
102
RTVSPost2010Prop56
140
1.0
102
RTVSPost2010PropOp56
 70
     1
102
RTVSPost2010Prop57
140
1.0
102
RTVSPost2010PropOp57
 70
     1
  0
XRECORD
  5
2B4
102
{ACAD_REACTORS
330
2B3
102
}
330
2B3
100
AcDbXrecord
280
     1
102
RTVSPropertyOp0
 70
     1
102
RTVSPropertyOp1
 70
     1
102
RTVSPropertyOp2
 70
     1
102
RTVSPropertyOp3
 70
     1
102
RTVSPropertyOp4
 70
     1
102
RTVSPropertyOp5
 70
     1
102
RTVSPropertyOp6
 70
     1
102
RTVSPropertyOp7
 70
     1
102
RTVSPropertyOp8
 70
     1
102
RTVSPropertyOp9
 70
     1
102
RTVSPropertyOp10
 70
     1
102
RTVSPropertyOp11
 70
     1
102
RTVSPropertyOp12
 70
     1
102
RTVSPropertyOp13
 70
     1
102
RTVSPropertyOp14
 70
     1
102
RTVSPropertyOp15
 70
     1
102
RTVSPropertyOp16
 70
     1
102
RTVSPropertyOp17
 70
     1
102
RTVSPropertyOp18
 70
     1
102
RTVSPropertyOp19
 70
     1
102
RTVSPropertyOp20
 70
     1
102
RTVSPropertyOp21
 70
     1
102
RTVSPropertyOp22
 70
     1
102
RTVSPropertyOp23
 70
     1
102
RTVSPropertyOp24
 70
     1
102
RTVSPropertyOp25
 70
     1
102
RTVSPropertyOp26
 70
     1
102
RTVSPropertyOp27
 70
     1
102
RTVSPropertyOp28
 70
     1
102
RTVSPropertyOp29
 70
     1
102
RTVSPropertyOp30
 70
     1
102
RTVSPropertyOp31
 70
     1
102
RTVSPropertyOp32
 70
     1
102
RTVSPropertyOp33
 70
     1
102
RTVSPropertyOp34
 70
     1
102
RTVSPropertyOp35
 70
     1
102
RTVSPropertyOp36
 70
     1
102
RTVSPropertyOp37
 70
     1
102
RTVSPropertyOp38
 70
     1
102
RTVSPropertyOp39
 70
     1
102
RTVSPropertyOp40
 70
     1
102
RTVSPropertyOp41
 70
     1
102
RTVSPropertyOp42
 70
     1
102
RTVSPropertyOp43
 70
     1
102
RTVSPropertyOp44
 70
     1
102
RTVSPropertyOp45
 70
     1
102
RTVSPropertyOp46
 70
     1
102
RTVSPropertyOp47
 70
     1
102
RTVSPropertyOp48
 70
     1
102
RTVSPropertyOp49
 70
     1
102
RTVSPropertyOp50
 70
     1
102
RTVSPropertyOp51
 70
     0
102
RTVSPropertyOp52
 70
     0
102
RTVSPropertyOp53
 70
     1
102
RTVSPropertyOp54
 70
     1
102
RTVSPropertyOp55
 70
     1
102
RTVSPropertyOp56
 70
     1
102
RTVSPropertyOp57
 70
     1
102
RTVSPost2010Prop28
280
     0
102
RTVSPost2010PropOp28
 70
     1
102
RTVSPost2010Prop29
280
     1
102
RTVSPost2010PropOp29
 70
     1
102
RTVSPost2010Prop30
280
     1
102
RTVSPost2010PropOp30
 70
     1
102
RTVSPost2010Prop31
280
     0
102
RTVSPost2010PropOp31
 70
     1
102
RTVSPost2010Prop32
280
     0
102
RTVSPost2010PropOp32
 70
     1
102
RTVSPost2010Prop33
280
     0
102
RTVSPost2010PropOp33
 70
     1
102
RTVSPost2010Prop34
280
     0
102
RTVSPost2010PropOp34
 70
     1
102
RTVSPost2010Prop35
280
     0
102
RTVSPost2010PropOp35
 70
     1
102
RTVSPost2010Prop36
280
     0
102
RTVSPost2010PropOp36
 70
     1
102
RTVSPost2010Prop37
 90
       50
102
RTVSPost2010PropOp37
 70
     1
102
RTVSPost2010Prop38
140
0.0
102
RTVSPost2010PropOp38
 70
     1
102
RTVSPost2010Prop39
140
1.0
102
RTVSPost2010PropOp39
 70
     1
102
RTVSPost2010Prop40
 90
        0
102
RTVSPost2010PropOp40
 70
     1
102
RTVSPost2010Prop41ColorIndex
 90
       18
102
RTVSPost2010Prop41ColorRGB
 90
        0
102
RTVSPost2010PropOp41
 70
     1
102
RTVSPost2010Prop42
 90
       50
102
RTVSPost2010PropOp42
 70
     1
102
RTVSPost2010Prop43
 90
        3
102
RTVSPost2010PropOp43
 70
     1
102
RTVSPost2010Prop44ColorIndex
 90
        5
102
RTVSPost2010Prop44ColorRGB
 90
      255
102
RTVSPost2010PropOp44
 70
     1
102
RTVSPost2010Prop45
280
     0
102
RTVSPost2010PropOp45
 70
     1
102
RTVSPost2010Prop46
 90
       50
102
RTVSPost2010PropOp46
 70
     1
102
RTVSPost2010Prop47
 90
       50
102
RTVSPost2010PropOp47
 70
     1
102
RTVSPost2010Prop48
 90
       50
102
RTVSPost2010PropOp48
 70
     1
102
RTVSPost2010Prop49
280
     0
102
RTVSPost2010PropOp49
 70
     1
102
RTVSPost2010Prop50
 90
       50
102
RTVSPost2010PropOp50
 70
     1
102
RTVSPost2010Prop51ColorIndex
 90
      256
102
RTVSPost2010Prop51ColorRGB
 90
-16777216
102
RTVSPost2010PropOp51
 70
     0
102
RTVSPost2010Prop52
140
1.0
102
RTVSPost2010PropOp52
 70
     0
102
RTVSPost2010Prop53
 90
        2
102
RTVSPost2010PropOp53
 70
     1
102
RTVSPost2010Prop54
  1
strokes_ogs.tif
102
RTVSPost2010PropOp54
 70
     1
102
RTVSPost2010Prop55
280
     0
102
RTVSPost2010PropOp55
 70
     1
102
RTVSPost2010Prop56
140
1.0
102
RTVSPost2010PropOp56
 70
     1
102
RTVSPost2010Prop57
140
1.0
102
RTVSPost2010PropOp57
 70
     1
  0
XRECORD
  5
2B6
102
{ACAD_REACTORS
330
2B5
102
}
330
2B5
100
AcDbXrecord
280
     1
102
RTVSPropertyOp0
 70
     1
102
RTVSPropertyOp1
 70
     1
102
RTVSPropertyOp2
 70
     1
102
RTVSPropertyOp3
 70
     1
102
RTVSPropertyOp4
 70
     1
102
RTVSPropertyOp5
 70
     1
102
RTVSPropertyOp6
 70
     1
102
RTVSPropertyOp7
 70
     1
102
RTVSPropertyOp8
 70
     1
102
RTVSPropertyOp9
 70
     1
102
RTVSPropertyOp10
 70
     1
102
RTVSPropertyOp11
 70
     1
102
RTVSPropertyOp12
 70
     1
102
RTVSPropertyOp13
 70
     1
102
RTVSPropertyOp14
 70
     1
102
RTVSPropertyOp15
 70
     1
102
RTVSPropertyOp16
 70
     1
102
RTVSPropertyOp17
 70
     1
102
RTVSPropertyOp18
 70
     1
102
RTVSPropertyOp19
 70
     1
102
RTVSPropertyOp20
 70
     1
102
RTVSPropertyOp21
 70
     1
102
RTVSPropertyOp22
 70
     1
102
RTVSPropertyOp23
 70
     1
102
RTVSPropertyOp24
 70
     1
102
RTVSPropertyOp25
 70
     1
102
RTVSPropertyOp26
 70
     1
102
RTVSPropertyOp27
 70
     1
102
RTVSPropertyOp28
 70
     1
102
RTVSPropertyOp29
 70
     1
102
RTVSPropertyOp30
 70
     1
102
RTVSPropertyOp31
 70
     1
102
RTVSPropertyOp32
 70
     1
102
RTVSPropertyOp33
 70
     1
102
RTVSPropertyOp34
 70
     1
102
RTVSPropertyOp35
 70
     1
102
RTVSPropertyOp36
 70
     1
102
RTVSPropertyOp37
 70
     1
102
RTVSPropertyOp38
 70
     1
102
RTVSPropertyOp39
 70
     1
102
RTVSPropertyOp40
 70
     1
102
RTVSPropertyOp41
 70
     1
102
RTVSPropertyOp42
 70
     1
102
RTVSPropertyOp43
 70
     1
102
RTVSPropertyOp44
 70
     1
102
RTVSPropertyOp45
 70
     1
102
RTVSPropertyOp46
 70
     1
102
RTVSPropertyOp47
 70
     1
102
RTVSPropertyOp48
 70
     1
102
RTVSPropertyOp49
 70
     1
102
RTVSPropertyOp50
 70
     1
102
RTVSPropertyOp51
 70
     0
102
RTVSPropertyOp52
 70
     0
102
RTVSPropertyOp53
 70
     1
102
RTVSPropertyOp54
 70
     1
102
RTVSPropertyOp55
 70
     1
102
RTVSPropertyOp56
 70
     1
102
RTVSPropertyOp57
 70
     1
102
RTVSPost2010Prop28
280
     0
102
RTVSPost2010PropOp28
 70
     1
102
RTVSPost2010Prop29
280
     1
102
RTVSPost2010PropOp29
 70
     1
102
RTVSPost2010Prop30
280
     1
102
RTVSPost2010PropOp30
 70
     1
102
RTVSPost2010Prop31
280
     0
102
RTVSPost2010PropOp31
 70
     1
102
RTVSPost2010Prop32
280
     0
102
RTVSPost2010PropOp32
 70
     1
102
RTVSPost2010Prop33
280
     0
102
RTVSPost2010PropOp33
 70
     1
102
RTVSPost2010Prop34
280
     0
102
RTVSPost2010PropOp34
 70
     1
102
RTVSPost2010Prop35
280
     0
102
RTVSPost2010PropOp35
 70
     1
102
RTVSPost2010Prop36
280
     0
102
RTVSPost2010PropOp36
 70
     1
102
RTVSPost2010Prop37
 90
       50
102
RTVSPost2010PropOp37
 70
     1
102
RTVSPost2010Prop38
140
0.0
102
RTVSPost2010PropOp38
 70
     1
102
RTVSPost2010Prop39
140
1.0
102
RTVSPost2010PropOp39
 70
     1
102
RTVSPost2010Prop40
 90
        0
102
RTVSPost2010PropOp40
 70
     1
102
RTVSPost2010Prop41ColorIndex
 90
       18
102
RTVSPost2010Prop41ColorRGB
 90
        0
102
RTVSPost2010PropOp41
 70
     1
102
RTVSPost2010Prop42
 90
       50
102
RTVSPost2010PropOp42
 70
     1
102
RTVSPost2010Prop43
 90
        3
102
RTVSPost2010PropOp43
 70
     1
102
RTVSPost2010Prop44ColorIndex
 90
        5
102
RTVSPost2010Prop44ColorRGB
 90
      255
102
RTVSPost2010PropOp44
 70
     1
102
RTVSPost2010Prop45
280
     0
102
RTVSPost2010PropOp45
 70
     1
102
RTVSPost2010Prop46
 90
       50
102
RTVSPost2010PropOp46
 70
     1
102
RTVSPost2010Prop47
 90
       50
102
RTVSPost2010PropOp47
 70
     1
102
RTVSPost2010Prop48
 90
       50
102
RTVSPost2010PropOp48
 70
     1
102
RTVSPost2010Prop49
280
     0
102
RTVSPost2010PropOp49
 70
     1
102
RTVSPost2010Prop50
 90
       50
102
RTVSPost2010PropOp50
 70
     1
102
RTVSPost2010Prop51ColorIndex
 90
      256
102
RTVSPost2010Prop51ColorRGB
 90
-16777216
102
RTVSPost2010PropOp51
 70
     0
102
RTVSPost2010Prop52
140
1.0
102
RTVSPost2010PropOp52
 70
     0
102
RTVSPost2010Prop53
 90
        2
102
RTVSPost2010PropOp53
 70
     1
102
RTVSPost2010Prop54
  1
strokes_ogs.tif
102
RTVSPost2010PropOp54
 70
     1
102
RTVSPost2010Prop55
280
     0
102
RTVSPost2010PropOp55
 70
     1
102
RTVSPost2010Prop56
140
1.0
102
RTVSPost2010PropOp56
 70
     1
102
RTVSPost2010Prop57
140
1.0
102
RTVSPost2010PropOp57
 70
     1
  0
XRECORD
  5
2A6
102
{ACAD_REACTORS
330
2A5
102
}
330
2A5
100
AcDbXrecord
280
     1
102
RTVSPropertyOp0
 70
     1
102
RTVSPropertyOp1
 70
     1
102
RTVSPropertyOp2
 70
     1
102
RTVSPropertyOp3
 70
     1
102
RTVSPropertyOp4
 70
     1
102
RTVSPropertyOp5
 70
     1
102
RTVSPropertyOp6
 70
     1
102
RTVSPropertyOp7
 70
     1
102
RTVSPropertyOp8
 70
     1
102
RTVSPropertyOp9
 70
     1
102
RTVSPropertyOp10
 70
     1
102
RTVSPropertyOp11
 70
     1
102
RTVSPropertyOp12
 70
     1
102
RTVSPropertyOp13
 70
     1
102
RTVSPropertyOp14
 70
     1
102
RTVSPropertyOp15
 70
     1
102
RTVSPropertyOp16
 70
     1
102
RTVSPropertyOp17
 70
     1
102
RTVSPropertyOp18
 70
     1
102
RTVSPropertyOp19
 70
     1
102
RTVSPropertyOp20
 70
     1
102
RTVSPropertyOp21
 70
     1
102
RTVSPropertyOp22
 70
     1
102
RTVSPropertyOp23
 70
     1
102
RTVSPropertyOp24
 70
     1
102
RTVSPropertyOp25
 70
     1
102
RTVSPropertyOp26
 70
     1
102
RTVSPropertyOp27
 70
     1
102
RTVSPropertyOp28
 70
     1
102
RTVSPropertyOp29
 70
     1
102
RTVSPropertyOp30
 70
     1
102
RTVSPropertyOp31
 70
     1
102
RTVSPropertyOp32
 70
     1
102
RTVSPropertyOp33
 70
     1
102
RTVSPropertyOp34
 70
     1
102
RTVSPropertyOp35
 70
     1
102
RTVSPropertyOp36
 70
     1
102
RTVSPropertyOp37
 70
     1
102
RTVSPropertyOp38
 70
     1
102
RTVSPropertyOp39
 70
     1
102
RTVSPropertyOp40
 70
     1
102
RTVSPropertyOp41
 70
     1
102
RTVSPropertyOp42
 70
     1
102
RTVSPropertyOp43
 70
     1
102
RTVSPropertyOp44
 70
     1
102
RTVSPropertyOp45
 70
     1
102
RTVSPropertyOp46
 70
     1
102
RTVSPropertyOp47
 70
     1
102
RTVSPropertyOp48
 70
     1
102
RTVSPropertyOp49
 70
     1
102
RTVSPropertyOp50
 70
     1
102
RTVSPropertyOp51
 70
     0
102
RTVSPropertyOp52
 70
     0
102
RTVSPropertyOp53
 70
     1
102
RTVSPropertyOp54
 70
     1
102
RTVSPropertyOp55
 70
     1
102
RTVSPropertyOp56
 70
     1
102
RTVSPropertyOp57
 70
     1
102
RTVSPost2010Prop28
280
     0
102
RTVSPost2010PropOp28
 70
     1
102
RTVSPost2010Prop29
280
     1
102
RTVSPost2010PropOp29
 70
     1
102
RTVSPost2010Prop30
280
     1
102
RTVSPost2010PropOp30
 70
     1
102
RTVSPost2010Prop31
280
     0
102
RTVSPost2010PropOp31
 70
     1
102
RTVSPost2010Prop32
280
     0
102
RTVSPost2010PropOp32
 70
     1
102
RTVSPost2010Prop33
280
     0
102
RTVSPost2010PropOp33
 70
     1
102
RTVSPost2010Prop34
280
     0
102
RTVSPost2010PropOp34
 70
     1
102
RTVSPost2010Prop35
280
     0
102
RTVSPost2010PropOp35
 70
     1
102
RTVSPost2010Prop36
280
     0
102
RTVSPost2010PropOp36
 70
     1
102
RTVSPost2010Prop37
 90
       50
102
RTVSPost2010PropOp37
 70
     1
102
RTVSPost2010Prop38
140
0.0
102
RTVSPost2010PropOp38
 70
     1
102
RTVSPost2010Prop39
140
1.0
102
RTVSPost2010PropOp39
 70
     1
102
RTVSPost2010Prop40
 90
        0
102
RTVSPost2010PropOp40
 70
     1
102
RTVSPost2010Prop41ColorIndex
 90
       18
102
RTVSPost2010Prop41ColorRGB
 90
        0
102
RTVSPost2010PropOp41
 70
     1
102
RTVSPost2010Prop42
 90
       50
102
RTVSPost2010PropOp42
 70
     1
102
RTVSPost2010Prop43
 90
        3
102
RTVSPost2010PropOp43
 70
     1
102
RTVSPost2010Prop44ColorIndex
 90
        5
102
RTVSPost2010Prop44ColorRGB
 90
      255
102
RTVSPost2010PropOp44
 70
     1
102
RTVSPost2010Prop45
280
     0
102
RTVSPost2010PropOp45
 70
     1
102
RTVSPost2010Prop46
 90
       50
102
RTVSPost2010PropOp46
 70
     1
102
RTVSPost2010Prop47
 90
       50
102
RTVSPost2010PropOp47
 70
     1
102
RTVSPost2010Prop48
 90
       50
102
RTVSPost2010PropOp48
 70
     1
102
RTVSPost2010Prop49
280
     0
102
RTVSPost2010PropOp49
 70
     1
102
RTVSPost2010Prop50
 90
       50
102
RTVSPost2010PropOp50
 70
     1
102
RTVSPost2010Prop51ColorIndex
 90
      256
102
RTVSPost2010Prop51ColorRGB
 90
-16777216
102
RTVSPost2010PropOp51
 70
     0
102
RTVSPost2010Prop52
140
1.0
102
RTVSPost2010PropOp52
 70
     0
102
RTVSPost2010Prop53
 90
        2
102
RTVSPost2010PropOp53
 70
     1
102
RTVSPost2010Prop54
  1
strokes_ogs.tif
102
RTVSPost2010PropOp54
 70
     1
102
RTVSPost2010Prop55
280
     0
102
RTVSPost2010PropOp55
 70
     1
102
RTVSPost2010Prop56
140
1.0
102
RTVSPost2010PropOp56
 70
     1
102
RTVSPost2010Prop57
140
1.0
102
RTVSPost2010PropOp57
 70
     1
  0
XRECORD
  5
298
102
{ACAD_REACTORS
330
297
102
}
330
297
100
AcDbXrecord
280
     1
102
RTVSPropertyOp0
 70
     1
102
RTVSPropertyOp1
 70
     1
102
RTVSPropertyOp2
 70
     1
102
RTVSPropertyOp3
 70
     1
102
RTVSPropertyOp4
 70
     1
102
RTVSPropertyOp5
 70
     1
102
RTVSPropertyOp6
 70
     1
102
RTVSPropertyOp7
 70
     1
102
RTVSPropertyOp8
 70
     1
102
RTVSPropertyOp9
 70
     1
102
RTVSPropertyOp10
 70
     1
102
RTVSPropertyOp11
 70
     1
102
RTVSPropertyOp12
 70
     1
102
RTVSPropertyOp13
 70
     1
102
RTVSPropertyOp14
 70
     1
102
RTVSPropertyOp15
 70
     1
102
RTVSPropertyOp16
 70
     1
102
RTVSPropertyOp17
 70
     1
102
RTVSPropertyOp18
 70
     1
102
RTVSPropertyOp19
 70
     1
102
RTVSPropertyOp20
 70
     1
102
RTVSPropertyOp21
 70
     1
102
RTVSPropertyOp22
 70
     1
102
RTVSPropertyOp23
 70
     1
102
RTVSPropertyOp24
 70
     1
102
RTVSPropertyOp25
 70
     1
102
RTVSPropertyOp26
 70
     1
102
RTVSPropertyOp27
 70
     1
102
RTVSPropertyOp28
 70
     1
102
RTVSPropertyOp29
 70
     1
102
RTVSPropertyOp30
 70
     1
102
RTVSPropertyOp31
 70
     1
102
RTVSPropertyOp32
 70
     1
102
RTVSPropertyOp33
 70
     1
102
RTVSPropertyOp34
 70
     1
102
RTVSPropertyOp35
 70
     1
102
RTVSPropertyOp36
 70
     1
102
RTVSPropertyOp37
 70
     1
102
RTVSPropertyOp38
 70
     1
102
RTVSPropertyOp39
 70
     1
102
RTVSPropertyOp40
 70
     1
102
RTVSPropertyOp41
 70
     1
102
RTVSPropertyOp42
 70
     1
102
RTVSPropertyOp43
 70
     1
102
RTVSPropertyOp44
 70
     1
102
RTVSPropertyOp45
 70
     1
102
RTVSPropertyOp46
 70
     1
102
RTVSPropertyOp47
 70
     1
102
RTVSPropertyOp48
 70
     1
102
RTVSPropertyOp49
 70
     1
102
RTVSPropertyOp50
 70
     1
102
RTVSPropertyOp51
 70
     0
102
RTVSPropertyOp52
 70
     0
102
RTVSPropertyOp53
 70
     1
102
RTVSPropertyOp54
 70
     1
102
RTVSPropertyOp55
 70
     1
102
RTVSPropertyOp56
 70
     1
102
RTVSPropertyOp57
 70
     1
102
RTVSPost2010Prop28
280
     0
102
RTVSPost2010PropOp28
 70
     1
102
RTVSPost2010Prop29
280
     1
102
RTVSPost2010PropOp29
 70
     1
102
RTVSPost2010Prop30
280
     1
102
RTVSPost2010PropOp30
 70
     1
102
RTVSPost2010Prop31
280
     0
102
RTVSPost2010PropOp31
 70
     1
102
RTVSPost2010Prop32
280
     0
102
RTVSPost2010PropOp32
 70
     1
102
RTVSPost2010Prop33
280
     0
102
RTVSPost2010PropOp33
 70
     1
102
RTVSPost2010Prop34
280
     0
102
RTVSPost2010PropOp34
 70
     1
102
RTVSPost2010Prop35
280
     0
102
RTVSPost2010PropOp35
 70
     1
102
RTVSPost2010Prop36
280
     0
102
RTVSPost2010PropOp36
 70
     1
102
RTVSPost2010Prop37
 90
       50
102
RTVSPost2010PropOp37
 70
     1
102
RTVSPost2010Prop38
140
0.0
102
RTVSPost2010PropOp38
 70
     1
102
RTVSPost2010Prop39
140
1.0
102
RTVSPost2010PropOp39
 70
     1
102
RTVSPost2010Prop40
 90
        0
102
RTVSPost2010PropOp40
 70
     1
102
RTVSPost2010Prop41ColorIndex
 90
       18
102
RTVSPost2010Prop41ColorRGB
 90
        0
102
RTVSPost2010PropOp41
 70
     1
102
RTVSPost2010Prop42
 90
       50
102
RTVSPost2010PropOp42
 70
     1
102
RTVSPost2010Prop43
 90
        3
102
RTVSPost2010PropOp43
 70
     1
102
RTVSPost2010Prop44ColorIndex
 90
        5
102
RTVSPost2010Prop44ColorRGB
 90
      255
102
RTVSPost2010PropOp44
 70
     1
102
RTVSPost2010Prop45
280
     0
102
RTVSPost2010PropOp45
 70
     1
102
RTVSPost2010Prop46
 90
       50
102
RTVSPost2010PropOp46
 70
     1
102
RTVSPost2010Prop47
 90
       50
102
RTVSPost2010PropOp47
 70
     1
102
RTVSPost2010Prop48
 90
       50
102
RTVSPost2010PropOp48
 70
     1
102
RTVSPost2010Prop49
280
     0
102
RTVSPost2010PropOp49
 70
     1
102
RTVSPost2010Prop50
 90
       50
102
RTVSPost2010PropOp50
 70
     1
102
RTVSPost2010Prop51ColorIndex
 90
      256
102
RTVSPost2010Prop51ColorRGB
 90
-16777216
102
RTVSPost2010PropOp51
 70
     0
102
RTVSPost2010Prop52
140
1.0
102
RTVSPost2010PropOp52
 70
     0
102
RTVSPost2010Prop53
 90
        2
102
RTVSPost2010PropOp53
 70
     1
102
RTVSPost2010Prop54
  1
strokes_ogs.tif
102
RTVSPost2010PropOp54
 70
     1
102
RTVSPost2010Prop55
280
     0
102
RTVSPost2010PropOp55
 70
     1
102
RTVSPost2010Prop56
140
1.0
102
RTVSPost2010PropOp56
 70
     1
102
RTVSPost2010Prop57
140
1.0
102
RTVSPost2010PropOp57
 70
     1
  0
XRECORD
  5
2B8
102
{ACAD_REACTORS
330
2B7
102
}
330
2B7
100
AcDbXrecord
280
     1
102
RTVSPropertyOp0
 70
     1
102
RTVSPropertyOp1
 70
     1
102
RTVSPropertyOp2
 70
     1
102
RTVSPropertyOp3
 70
     1
102
RTVSPropertyOp4
 70
     1
102
RTVSPropertyOp5
 70
     1
102
RTVSPropertyOp6
 70
     1
102
RTVSPropertyOp7
 70
     1
102
RTVSPropertyOp8
 70
     1
102
RTVSPropertyOp9
 70
     1
102
RTVSPropertyOp10
 70
     1
102
RTVSPropertyOp11
 70
     1
102
RTVSPropertyOp12
 70
     1
102
RTVSPropertyOp13
 70
     1
102
RTVSPropertyOp14
 70
     1
102
RTVSPropertyOp15
 70
     1
102
RTVSPropertyOp16
 70
     1
102
RTVSPropertyOp17
 70
     1
102
RTVSPropertyOp18
 70
     1
102
RTVSPropertyOp19
 70
     1
102
RTVSPropertyOp20
 70
     1
102
RTVSPropertyOp21
 70
     1
102
RTVSPropertyOp22
 70
     1
102
RTVSPropertyOp23
 70
     1
102
RTVSPropertyOp24
 70
     1
102
RTVSPropertyOp25
 70
     1
102
RTVSPropertyOp26
 70
     1
102
RTVSPropertyOp27
 70
     1
102
RTVSPropertyOp28
 70
     1
102
RTVSPropertyOp29
 70
     1
102
RTVSPropertyOp30
 70
     1
102
RTVSPropertyOp31
 70
     1
102
RTVSPropertyOp32
 70
     1
102
RTVSPropertyOp33
 70
     1
102
RTVSPropertyOp34
 70
     1
102
RTVSPropertyOp35
 70
     1
102
RTVSPropertyOp36
 70
     1
102
RTVSPropertyOp37
 70
     1
102
RTVSPropertyOp38
 70
     1
102
RTVSPropertyOp39
 70
     1
102
RTVSPropertyOp40
 70
     1
102
RTVSPropertyOp41
 70
     1
102
RTVSPropertyOp42
 70
     1
102
RTVSPropertyOp43
 70
     1
102
RTVSPropertyOp44
 70
     1
102
RTVSPropertyOp45
 70
     1
102
RTVSPropertyOp46
 70
     1
102
RTVSPropertyOp47
 70
     1
102
RTVSPropertyOp48
 70
     1
102
RTVSPropertyOp49
 70
     1
102
RTVSPropertyOp50
 70
     1
102
RTVSPropertyOp51
 70
     0
102
RTVSPropertyOp52
 70
     0
102
RTVSPropertyOp53
 70
     1
102
RTVSPropertyOp54
 70
     1
102
RTVSPropertyOp55
 70
     1
102
RTVSPropertyOp56
 70
     1
102
RTVSPropertyOp57
 70
     1
102
RTVSPost2010Prop28
280
     0
102
RTVSPost2010PropOp28
 70
     1
102
RTVSPost2010Prop29
280
     1
102
RTVSPost2010PropOp29
 70
     1
102
RTVSPost2010Prop30
280
     1
102
RTVSPost2010PropOp30
 70
     1
102
RTVSPost2010Prop31
280
     0
102
RTVSPost2010PropOp31
 70
     1
102
RTVSPost2010Prop32
280
     0
102
RTVSPost2010PropOp32
 70
     1
102
RTVSPost2010Prop33
280
     0
102
RTVSPost2010PropOp33
 70
     1
102
RTVSPost2010Prop34
280
     0
102
RTVSPost2010PropOp34
 70
     1
102
RTVSPost2010Prop35
280
     0
102
RTVSPost2010PropOp35
 70
     1
102
RTVSPost2010Prop36
280
     0
102
RTVSPost2010PropOp36
 70
     1
102
RTVSPost2010Prop37
 90
       50
102
RTVSPost2010PropOp37
 70
     1
102
RTVSPost2010Prop38
140
0.0
102
RTVSPost2010PropOp38
 70
     1
102
RTVSPost2010Prop39
140
1.0
102
RTVSPost2010PropOp39
 70
     1
102
RTVSPost2010Prop40
 90
        0
102
RTVSPost2010PropOp40
 70
     1
102
RTVSPost2010Prop41ColorIndex
 90
       18
102
RTVSPost2010Prop41ColorRGB
 90
        0
102
RTVSPost2010PropOp41
 70
     1
102
RTVSPost2010Prop42
 90
       50
102
RTVSPost2010PropOp42
 70
     1
102
RTVSPost2010Prop43
 90
        3
102
RTVSPost2010PropOp43
 70
     1
102
RTVSPost2010Prop44ColorIndex
 90
        5
102
RTVSPost2010Prop44ColorRGB
 90
      255
102
RTVSPost2010PropOp44
 70
     1
102
RTVSPost2010Prop45
280
     0
102
RTVSPost2010PropOp45
 70
     1
102
RTVSPost2010Prop46
 90
       50
102
RTVSPost2010PropOp46
 70
     1
102
RTVSPost2010Prop47
 90
       50
102
RTVSPost2010PropOp47
 70
     1
102
RTVSPost2010Prop48
 90
       50
102
RTVSPost2010PropOp48
 70
     1
102
RTVSPost2010Prop49
280
     0
102
RTVSPost2010PropOp49
 70
     1
102
RTVSPost2010Prop50
 90
       50
102
RTVSPost2010PropOp50
 70
     1
102
RTVSPost2010Prop51ColorIndex
 90
      256
102
RTVSPost2010Prop51ColorRGB
 90
-16777216
102
RTVSPost2010PropOp51
 70
     0
102
RTVSPost2010Prop52
140
1.0
102
RTVSPost2010PropOp52
 70
     0
102
RTVSPost2010Prop53
 90
        2
102
RTVSPost2010PropOp53
 70
     1
102
RTVSPost2010Prop54
  1
strokes_ogs.tif
102
RTVSPost2010PropOp54
 70
     1
102
RTVSPost2010Prop55
280
     0
102
RTVSPost2010PropOp55
 70
     1
102
RTVSPost2010Prop56
140
1.0
102
RTVSPost2010PropOp56
 70
     1
102
RTVSPost2010Prop57
140
1.0
102
RTVSPost2010PropOp57
 70
     1
  0
ENDSEC
  0
EOF
